PrimaNota.ru - самый крупный в мире бесплатный архив песенных текстов, аккордов, табулатур и нот


Cure - Sinking - текст песни, бас-таба, видео

Регистрация Запомнить меня
Войти через:  Facebook Google Twitter Vk Yandex Mail.ru

Cure - Sinking - текст песни, бас-таба, видео

Печатать
Просмотров: 313
Уроки эстрадного вокала в Санкт-Петербурге
-------------------------------------------------------------------------------
			     SINKING - The Cure
-------------------------------------------------------------------------------

Tabbed By : sTRaNge
e-mail: will.bright@mac.com

Tuning: standard

intro, main thing
G|---------------|
D|----5544002-22-|
A|---------------|
E|3-0------------|x7

prechorus at 0:32
G|-------------------|
D|----5544557757-542-|
A|-------------------|
E|3-0----------------|

then chorus
G|-------------------------------|
D|-----------------77557---77557-|
A|3333333333333333---------------|
E|----------------5------55------|x2

bridge (not too sure)pt 1
G|---------------------------------|
D|---------------------------------|
A|2-222-22-22-555------------------|
E|-----------------2-222-22-22-555-|x2

pt 2
G|--------------------------|
D|--------------------------|
A|5-575-575757-3-353-353535-|
E|--------------------------|x2

| /  slide up
| \  slide down
| h  hammer-on
| p  pull-off
| ~  vibrato
| +  harmonic
| x  Mute note
===============================================================================
Добавлено: 24.06.2012
Другие материалы по этой песне:

Страница создана 08.03.2012
http://primanota.ru/cure/sinking-chords.htm
Привет, Гость.
Предлагаем пройти революционный курс по гитаре.
Подарок от PrimaNota.Ru, забирай!