PrimaNota.ru - самый крупный в мире бесплатный архив песенных текстов, аккордов, табулатур и нот


Cure - Shiver And Shake - текст песни, бас-таба, видео

Регистрация Запомнить меня
Войти через:  Facebook Google Twitter Vk Yandex Mail.ru

Cure - Shiver And Shake - текст песни, бас-таба, видео

Печатать
Просмотров: 151
Уроки эстрадного вокала в Санкт-Петербурге
Listen to song for correct timing

G |---------------------------------------------------------------|
D |---------------------------------------------------------------|
A |---------------------------------------------------------------|
E |-2-2-2-2-2-5-5-5-5-0-0-0-0-------------------------------------|

G |---------------------------------------------------------------|
D |---------------------------------------------------------------|
A |---------------------------------------------------------------|
E |-2-0-2-2-2-2-5-5-5-5-0-0-0-0-----------------------------------|

Towards end of song it goes:

G |---------------------------------------------------------------|
D |-------------------2-2-2-2-------------------------------------|
A |---------------------------------------------------------------|
E |-2-2-2-2-2-5-5-5-5---------------------------------------------|

Nice easy song. My first ever tab : )
Добавлено: 05.03.2012
Другие материалы по этой песне:
  • Аккорды и текст

Страница создана 05.03.2012
http://primanota.ru/cure/shiver-and-shake-chords.htm
Привет, Гость.
Предлагаем пройти революционный курс по гитаре.
Подарок от PrimaNota.Ru, забирай!