PrimaNota.ru - самый крупный в мире бесплатный архив песенных текстов, аккордов, табулатур и нот


Cure - Play With Me - таба, бас-таба, видео

Регистрация Запомнить меня
Войти через:  Facebook Google Twitter Vk Yandex Mail.ru

Cure - Play With Me - таба, бас-таба, видео

Печатать
Просмотров: 186
Play With Me
by .::.Luchitox.::.

 Intro

  p.m	   p.m

 e ------6--6--5-----3--3--5--      e --X-------X-----|
 B -----8------6----4------6--      B --3~~~~~~~3-----|
 G ----8-----------5----------      G --3~~~~~~~3-----|
 D ---8-----------5-----------      D --3~~~~~~~3-----|
 A --x------------------------      A --X~~~~~~~X-----|
 E ---------------------------      E --X-------X-----|

	repeat 'till necesary	let it ring a little bit


	p.m

 e -------3--3---1--               e -----3--3---1----|
 B ------3---3---1--                B ----4---4---3---|
 G -----3----3---2--                G ---5--------3---|
 D ----5---------3--            D --5---------3-------|
 A ---5----------3--            A --------------------|
 E --3--------------            E --------------------|

		 repeat 'till necesary


       p.m	   P.m		 p.m

 e -----X--X---X------X--X--X-------X--X---X------X--X---X--    e --6-|-6----|
 B ----4---4~~~4-----3---3~~~3-----4---4~~~4-----8---8~~~8--    B --8-|-8----|
 G ---5----5~~~5----3----3~~~3----5----5~~~5----8----8~~~8--     G --8-|-8---|
 D --5-----5~~~5---3-----3~~~3---5-----5~~~5---8-----8~~~8--    D -----------|
 A --------------------------------------------------X---X--    A -----------|
 E --------------------------------------------------X---X--    E -----------|

 I know that you need me.	  I know that you care.

 You know that I may not love you but, I will always be there.


 -then repeat-


 This part ends with:

 e --X-X-X-X-X-X-X--|
 B --3-3-3-3-3-3-3--|
 G --3-3-3-3-3-3-3--|
 D --3-3-3-3-3-3-3--|
 A --X-X-X-X-X-X-X--|
 E --X-X-X-X-X-X-X--|


 *Repeat all the parts when necessary

 *Most of the time use down stroke to p.m and follow it with an upstroke

 * ~~~ Means let it ring

 Questions & suggestions; Comment
Добавлено: 20.07.2012
Другие материалы по этой песне:
  • Аккорды и текст

Страница создана 20.07.2012
http://primanota.ru/cure/play-with-me-chords.htm
Привет, Гость.
Предлагаем пройти революционный курс по гитаре.
Подарок от PrimaNota.Ru, забирай!