PrimaNota.ru - самый крупный в мире бесплатный архив песенных текстов, аккордов, табулатур и нот


Cure - Never Enough - текст песни, таба, видео

Регистрация Запомнить меня
Войти через:  Facebook Google Twitter Vk Yandex Mail.ru

Cure - Never Enough - текст песни, таба, видео

Печатать
Просмотров: 195
Авторы музыки: The Cure
Авторы текста: Robert Smith
============------========--------------------------------------
         Tabbed by Greg O'Beirne - gobeirne@lethe.uwa.edu.au
  -----------------------------------------------------------------

Times given are from "Never Enough (Big Mix)" from Mixed Up.

Bass line (from 0:19 onwards)

 1 + 2 + 3 + 4 + 1 + 2 + 3 + 4 + 1 + 2 + 3 + 4 + 1 + 2 + 3 + 4 +
-----------------------------------------------------------------|
-----------------------------------------------------------------|
-----------------------------------------------------------------|
-----------------------------------------------------------------|
-----------------------------------------------------------------|
-5-5-5--3-33-3---0-0-0-00-00-0-0-5-5-5--3-33-3---0-0-0-00-00-0-0-|


Riff1 (found at 0:57)
(with wah)
 1 + 2 + 3 + 4 + 1 + 2 + 3 + 4 + 1 + 2 + 3 + 4 + 1 + 2 + 3 + 4 +
-----------------------------------------------------------------|
-----------------------------------------------------------------|
-----------------------------------------------------------------|
-7~~-5-----5-------------------7~~---5-----5---------------------|
---------7-----7~~---5---5-7-------------7-------7~~~~~~~~~~\----|
-----------------------------------------------------------------|

Chorus:
(at 2:25)
 1 + 2 + 3 + 4 + 1 + 2 + 3 + 4 + 1 + 2 + 3 + 4 + 1 + 2 + 3 + 4 +
-----------------------------------------------------------------|
-----------------------------------------------------------------|
-----------------------------------------------------------------|
-----------------------------------------------------------------|
-3-3-3-35-55-5-5-----------------3-3-3-35-55-5-5-----------------|
-----------------0-0-0-00-00-0-0-----------------0-0-0-00-00-0-0-|

(at 2:32)
 1 + 2 + 3 + 4 + 1 + 2 + 3 + 4 + 1 + 2 + 3 + 4 + 1 + 2 + 3 + 4 +
-----------------------------------------------------------------|
-----------------------------------------------------------------|
-----------------------------------------------------------------|
-----------------------------------------------------------------|
---------------------------------3-3-3-35-55-5-5-----------------|
-5-5-5-53-33-3-3-5-5-5-53-33-3-3-----------------0-0-0-00-00-0-0-|

Another Riff (found at 2:04)
(with wah)
  1   +   2   +   3   +   4   +
---------------------------------|
---------------------------------|
---------------------------------|
--7b8h5--------------------------|     Play this 3 times
--------7-7----X7---7----X7------|
---------------------------------|

  1   +   2   +   3   +   4   +
---------------------------------|
---------------------------------|
XX9~~~~~~~~~~~~~~~~~~~~~~~~~~~~~-     Then play this...
---------------------------------|
---------------------------------|
---------------------------------|

Bass Pull-Off variation (found at 3:20)
  1   +   2\/\/\/3   +   4   +   1   +   2   +   3   +   4   +
-----------------------------------------------------------------|
-----------------------------------------------------------------|
-----------------------------------------------------------------|
-----------------------------------------------------------------|
-----------------------------------------------------------------|
--5---5---5p3p0h3------------3~~~0-------------------------------|
          Triplet


Additions/Corrections/Comments needed and welcomed :)
--
Greg O'Beirne
gobeirne@lethe.uwa.edu.au
"what ever I do it's never enough...."
Добавлено: 25.06.2012
Другие материалы по этой песне:

Страница создана 26.03.2012
http://primanota.ru/cure/never-enough-chords.htm
Привет, Гость.
Предлагаем пройти революционный курс по гитаре.
Подарок от PrimaNota.Ru, забирай!