PrimaNota.ru - самый крупный в мире бесплатный архив песенных текстов, аккордов, табулатур и нот


Cure - Love Will Tear Us Apart - текст песни, таба, видео

Регистрация Запомнить меня
Войти через:  Facebook Google Twitter Vk Yandex Mail.ru

Cure - Love Will Tear Us Apart - текст песни, таба, видео

Печатать
Просмотров: 291
Уроки эстрадного вокала в Санкт-Петербурге
Авторы музыки: Ian Curtis, Bernard Sumner, Peter Hook, Stephen Morris
Авторы текста: Ian Curtis
Artist: The Cure
Album: NA

E-------------------------5-----------------------5-----------5-|
B-------------------------5-----------------------5-----------5-|
G-------------------------0-----------------------0-----------0-|
D-------------------------0-----------------------0-----------0-|
A-4-4-4-4-4-4-4-4-4-4-4-4-4--4-4-4-4-4-4-4-4-4-4-4--4-4-4-4-4-4-|
E-5-5-5-5-5-5-5-5-5-5-5-5-5--5-5-5-5-5-5-5-5-5-5-5--5-5-5-5-5-5-|


E---------5-------5---5---5---5---5--5---5----5---5----|
B---------5-------5---5---5---5---5--5---5----5---5----|
G-0-0-0-0-0-0-0-0-0-0-0-0-0-0-0-0-0-0-0-0-0-0-0-0-0----|
D-0-0-0-0-0-0-0-0-0-0-0-0-0-0-0-0-0-0-0-0-0-0-0-0-0----|
A-4-4-4-4-4-4-4-4-4-4-4-4-4-4-4-4-4-4-4-4-4-4-4-4-4----|
E-5-5-5-5-5-5-5-5-5-5-5-5-5-5-5-5-5-5-5-5-5-5-5-5-5----|

If your a beginner you can play Em instead of the Bm and ignore it in intro, I just like 
variation.

D   Dsus4  G  Bm  Em    A


D                Dsus4
When the routine bites hard
G            Em    A
And ambitions are low
D                Dsus4
And the resentment rides high
G             Bm     A
But emotions wont grow
D                  Dsus4
And were changing our ways,
G          Em       A
Taking different roads
D          Dsus4   G          Em       A
Then love, love will tear us apart again

D                Dsus4
Why is the bedroom so cold
G             Em     A
Turned away on your side?
D                Dsus4
Is my timing that flawed
G             Bm     A
Our respect run so dry?
D                Dsus4
Yet theres still this appeal
G             Em     A
That weve kept through our lives
D    Dsus4   G     Bm     Em       A
Love, love will tear us apart again


D                Dsus4
Do you cry out in your sleep
G             Em     A
All my failings expose?
D                Dsus4
Get a taste in my mouth
G             Bm     A
As desperation takes hold
D                Dsus4
Is it something so good
G             Em     A
Just cant function no more?
D    Dsus4   G     Bm     Em       A
When love, love will tear us apart again
Добавлено: 28.02.2012
Другие материалы по этой песне:
  • Аккорды и текст

Страница создана 28.02.2012
http://primanota.ru/cure/love-will-tear-us-apart-chords.htm
Привет, Гость.
Предлагаем пройти революционный курс по гитаре.
Подарок от PrimaNota.Ru, забирай!