PrimaNota.ru - самый крупный в мире бесплатный архив песенных текстов, аккордов, табулатур и нот


Cure - Hot Hot Hot - текст песни, таба, бас-таба, видео

Регистрация Запомнить меня
Войти через:  Facebook Google Twitter Vk Yandex Mail.ru

Cure - Hot Hot Hot - текст песни, таба, бас-таба, видео

Печатать
Просмотров: 233
Авторы музыки: Porl Thompson, Simon Gallup, Robert Smith, Laurence Tolhurst, Boris Williams
Авторы текста: Robert Smith
the Cure
Hot hot hot!!!
by Luchitox


 Intro

 Gtr.1
						  Repeat
 e ---------------------------------------------|
 B ---------------------------------------------|
 G ---------------------------------------------|
 D --5555-7--7----5-7--7--5555-7--7---7--0--0-0-|
 A -------------7-------------------7-----------|
 E ---------------------------------------------|


 Gtr.2

 Hmmm Hmmm Hmmm

 e--7777~~~7--7-8-8--8--8--8--8--7-7-5----2-2-2-2~~2--2--3-3--3--3--3--3--2-2---|
B--8888~~~8--8-8-8--8--8--8--8--7-7-5----3-3-3-3~~3--3--4-4--4--4--4--4--3-3----|
G--9999~~~9--9-8-8--8--8--8--8--7-7-5----4-4-4-4~~4--4--5-5--5--5--5--5--4-4----|
D-------------------------------------------------------------------------------|
A-------------------------------------------------------------------------------|
E-------------------------------------------------------------------------------|


 e--5--5--5--5--8-8--8-8~~8--8--8--8--7-7--5--5-5--3--3-3--8--8-8--8--8--9999--9-|
B--5--5--5--5--8-8--8-8~~8--8--8--8--7-7--5--5-5--4--4-4--8--8-8--8--8--9999--9--|
G--5--5--5--5--8-8--8-8~~8--8--8--8--7-7--5--5-5--5--5-5--8--8-8--8--8--9999--9--|
D--------------------------------------------------------------------------------|
A--------------------------------------------------------------------------------|
E--------------------------------------------------------------------------------|


 e--9/12--12-12--12--12--12--12--12-12--2--2-2--2--8888~~7--5--2--2-2--2--3-X-3--|
B--9/12--12-12--12--12--12--12--12-12--3--3-3--3--8888~~7--5--3--3-3--3--3-X-3---|
G--9/12--12-12--12--12--12--12--12-12--4--4-4--4--8888~~7--5--4--4-4--4--3-X-3---|
D--------------------------------------------------------------------------------|
A--------------------------------------------------------------------------------|
E--------------------------------------------------------------------------------|


				The first time I saw lightning strike...

 e --3--3--3--3-3--3-3-3-3~~3--3---------------------------------------------|
 B --3--3--3--3-3--3-3-3-3~~3--3---------------------------------------------|
 G --3--3--3--3-3--3-3-3-3~~3--3---------------------------------------------|
 D --------------------------------------------------------------------------|
 A --------------------------------------------------------------------------|
 E --------------------------------------------------------------------------|


 And I never went back

 e -------------------12-12-12-X-10-10-10-X-8-8-8-X-10-8-X-5--5--8888~~8--8--|
 B -------------------12-12-12-X-10-10-10-X-8-8-8-X-10-8-X-5--5--8888~~8--8--|
 D --------------------------------------------------------5--5--8888~~8--8--|
 A --------------------------------------------------------------------------|
 E --------------------------------------------------------------------------|

 e --5--5-5-3--5--3--8888~~8--10101010~~10-10/12-12-12--10-10-10-8-8-8-X-10-8-|
 B --5--5-5-4--5--4--8888~~8--10101010~~10-10/12-12-12--10-10-10-8-8-8-X-10-8-|
 G --5--5-5-5--5--5--8888~~8--10101010~~10-10/12-12-12------------------------|
 D ---------------------------------------------------------------------------|
 A ---------------------------------------------------------------------------|
 E ---------------------------------------------------------------------------|

 							AUU! The second time

 e --5--5~~8888~~7--5--2-2~~2--2--8888~~8--8--8-8--8--10XXX10--10--10-X-10-X-|
 B --5--5~~8888~~7--5--3-3~~3--3--8888~~8--8--8-8--8--10XXX10--10--10-X-10-X-|
 G --5--5~~8888~~7--5--4-4~~4--4--8888~~8--8--8-8--8-------------------------|
 D --------------------------------------------------------------------------|
 A --------------------------------------------------------------------------|
 E --------------------------------------------------------------------------|


 Hey hey hey!!!					   Repeat

 e --10--10--10--12-12--12-12--12--12--12--15-15\10--|
 B --10--10--10--12-12--12-12--12--12--12--15-15\10--|
 G --------------------------------------------------|
 D --------------------------------------------------|
 A --------------------------------------------------|
 E --------------------------------------------------|

 						   Repeat

 e --17-17-17-X-15-15-15-X-12-12-12-10--10--10-10---|
 B --17-17-17-X-15-15-15-X-12-12-12-10--10--10-10---|
 G -------------------------------------------------|
 D -------------------------------------------------|
 A -------------------------------------------------|
 E -------------------------------------------------|


 Hot hot hot!!!	...   Then just improvise a little using the same patterns

 e --8-X-8-X-8-X-8------------------------------|
 B --8-X-8-X-8-X-8------------------------------|
 G --8-X-8-X-8-X-8------------------------------|
 D ---------------------------------------------|
 A ---------------------------------------------|
 E ---------------------------------------------|


 Good Luck!!
Добавлено: 05.04.2012
Другие материалы по этой песне:

Страница создана 21.02.2012
http://primanota.ru/cure/hot-hot-hot-chords.htm
Привет, Гость.
Предлагаем пройти революционный курс по гитаре.
Подарок от PrimaNota.Ru, забирай!