PrimaNota.ru - самый крупный в мире бесплатный архив песенных текстов, аккордов, табулатур и нот


Cure - Hey You - текст песни, бас-таба, видео

Регистрация Запомнить меня
Войти через:  Facebook Google Twitter Vk Yandex Mail.ru

Cure - Hey You - текст песни, бас-таба, видео

Печатать
Просмотров: 174
Авторы музыки: Porl Thompson, Simon Gallup, Robert Smith, Laurence Tolhurst, Boris Williams
Авторы текста: Robert Smith
Off the album Kiss Me, Kiss Me, Kiss Me, from 1987.
Played by the one and only Simon Gallup of The Cure.



G|-------------------------------------------------------------------|
D|-------------------------------------------------------------------|
A|-0-12-12-10-10-0-0-12-12-10-0-10---12-12-10-10------12-12-10----10-|
E|---------------------------------12------------12-12---------12----|



G|-0---------0-0-------------------------------------------|
D|---7-7-9-9-----7-7-9-9-9-0-------------0-0----------0----|
A|---------------------------12-12-10-10-----12-12-10---10-|
E|---------------------------------------------------------|

Just repeat this for the whole song.
Добавлено: 27.05.2012
Другие материалы по этой песне:

Страница создана 27.05.2012
http://primanota.ru/cure/hey-you-chords.htm
Привет, Гость.
Предлагаем пройти революционный курс по гитаре.
Подарок от PrimaNota.Ru, забирай!