PrimaNota.ru - самый крупный в мире бесплатный архив песенных текстов, аккордов, табулатур и нот


Cure - Bird Mad Girl - аккорды и текст, видео

Регистрация Запомнить меня
Войти через:  Facebook Google Twitter Vk Yandex Mail.ru

Cure - Bird Mad Girl - аккорды и текст, видео

Печатать
Просмотров: 188
Авторы музыки: Robert Smith, Laurence Tolhurst
Авторы текста: Robert Smith
Bird Mad Girl
Cure
birdmad girl (the cure) written by: smith, tolhurst 1984
transcribed by jared morris from the album "the top"

normal tuning:

chords:                                                           =20


intro and chorus:  E / C#m
                   Bm / D    (x2 or x4)

pre-verse: F#m Bm (x2)

verse: F#m Bm (x2)
       Bm7 D7M   (x2)

ends on: (see rythem figure IV)

-----------------------------------------
intro and chorus: lead guitar (classical)

     E / C#m                        Bm / D
E ----------------------|---------------------------9---------------
B ----------------------|----------------------9----9---------------
G ----------------------|----------------------7----7---------------
D -------4-6-6-6-6-4----|---6-6-6-6-4----------9--------------------
A -------------------4--|--------------4-5--------------------------
E ----------------------|-------------------------------------------


2nd part of verse: guitar (flanger)

   D7M  
E -------9----------9-----------------------------------------------
B -----7---7~-----7---7~--------------------------------------------
G ---9----------9---------------------------------------------------
D ------------------------------------------------------------------
A ------------------------------------------------------------------
E ------------------------------------------------------------------

intro and chorus: other lead guitar


E ----------12--------12--------------------------------------------
B ------10---------10-----------------------------------------------
G --13----------13--------------------------------------------------
D ------------------------------------------------------------------
A ------------------------------------------------------------------
E ------------------------------------------------------------------

song ends on: (classical guitar)

   Esus2
E --12-------------------------------------------------------------
B --10-------------------------------------------------------------
G --13-------------------------------------------------------------
D -----------------------------------------------------------------
A -----------------------------------------------------------------
E -----------------------------------------------------------------


progression:

intro x2
pre verse x2 / verse / chorus x2
pre verse x2 / verse / chorus x4
pre verse x2 / verse / chorus x 4
end.
     
Добавлено: 22.11.2013
Другие материалы по этой песне:
  • Аккорды и текст

Страница создана 29.02.2012
http://primanota.ru/cure/bird-mad-girl-chords.htm
Привет, Гость.
Предлагаем пройти революционный курс по гитаре.
Подарок от PrimaNota.Ru, забирай!