PrimaNota.ru - самый крупный в мире бесплатный архив песенных текстов, аккордов, табулатур и нот


Cure - Another Journey By Train - таба, бас-таба, видео

Регистрация Запомнить меня
Войти через:  Facebook Google Twitter Vk Yandex Mail.ru

Cure - Another Journey By Train - таба, бас-таба, видео

Печатать
Просмотров: 108
Song: Another Journey By Train
Band: The Cure
Version on Album: Join the Dots: B-Sides & Rarities, 1978-2001
Year: 1980
Tabber: beranger80@hotmail.com



Part 1 (0:00)        
Dm A#



Part 2 (0:22)
Am Dm A# E A



Part 1 (0:30)    with riff A     
Dm A#



Part 2 (0:52)
Am Dm A# E A



Part 3 (1:00)    with Riff B
Gm A F F E A# A
Gm F E E A# A



Part 1 (1:20)    with riff A      
Dm A#



Part 2 (1:41)
Am Dm A# E A



Part 3 (1:50)    with Riff C
Gm A F F E A# A
Gm F E E A# A



Part 1 (2:08)        
Dm A#



Part 4 (2:30)
A#  C



Part 1 (2:35)        
Dm A#



End on Dm at 2:57



Riff A (0:30)
e------------------------------------------||
b--------------6-6-5---5-------------------||
g---7-7-5-7--7-------7---------------------||
d--------------------------8--7-8-5-8------||
a------------------------------------------||
E------------------------------------------||



Riff B (1:00)
e------------------------------------------------------|
b-----------------------------------11-11-11-10--------|
g--12-12-12-12--10-12-10-10-9-9-9----------------------|
d------------------------------------------------------|
a------------------------------------------------------|
E------------------------------------------------------|

cont.
e------------------------------------------------------||
b-----------------------------------11-11-11-10-10-10--||
g-----12---14-12-10-----12-10-9------------------------||
d------------------------------------------------------||
a------------------------------------------------------||
E------------------------------------------------------||



Riff C (1:50)
e------------------------------------------------------|
b-----------------------------------11-11-11-14-14-14--|
g--12-12-12-12--10------10-9-9-9-----------------------|
d---------------------9--------------------------------|
a------------------------------------------------------|
E------------------------------------------------------|

cont.
e------------------------------12---10-10-12-13-12-10--||
b------------------------------------------------------||
g----12---14-12-10---12-10-9---------------------------||
d------------------------------------------------------||
a------------------------------------------------------||
E------------------------------------------------------||
Добавлено: 26.02.2016
Другие материалы по этой песне:
  • Аккорды и текст

Страница создана 22.12.2013
http://primanota.ru/cure/another-journey-by-train-chords.htm
Привет, Гость.
Предлагаем пройти революционный курс по гитаре.
Подарок от PrimaNota.Ru, забирай!