PrimaNota.ru - самый крупный в мире бесплатный архив песенных текстов, аккордов, табулатур и нот


Cure - A Chain Of Flowers - текст песни, таба, видео

Регистрация Запомнить меня
Войти через:  Facebook Google Twitter Vk Yandex Mail.ru

Cure - A Chain Of Flowers - текст песни, таба, видео

Печатать
Просмотров: 214
Авторы музыки: Porl Thompson, Simon Gallup, Robert Smith, Laurence Tolhurst, Boris Williams
Авторы текста: Robert Smith
Song: A chain of Flowers
Artist: The Cure
Album: Join the Dots


Intro (Guitar 4)
----------------------

Part I: Repeat 2x
-------------------------

e-|------0-----0-------|-----0------0-----|-----0-----0------|-----0------0----|
B-|----0-----0-------0-|---0------0-----0-|---0-----0------0-|---0------0-----0|
G-|--------------------|------------------|------------------|-----------------|
D-|-9------9-------9---|-7------7-----7---|-5-----5------5---|-7------7-----7--|
A-|--------------------|------------------|------------------|-----------------|
E-|--------------------|------------------|------------------|-----------------|

or

e|-----0-----0-----|-----0-----0------|-----0-----0-----|-----0------0------|
B|---0-----0----0--|---0-----0-----0--|---0-----0-----0-|---0------0------0-|
G|-4-----4----4----|-2-----2-----2----|-0-----0-----0---|-2------2------2---|
D|-----------------|------------------|-----------------|-------------------|
A|-----------------|------------------|-----------------|-------------------|
E|-----------------|------------------|-----------------|-------------------|



Intro Part II: Repeat 2x
-------------------------

e-|------------------|------------------|------------------|-----------------|
B-|-----0------0-----|-----0------0-----|-----0-----0------|-----0-----0-----|
G-|---0------0-----0-|---0------0-----0-|---0-----0--------|---0-----0-----0-|
D-|-5------5-----5---|-4------4-----4---|-5-----5-----7-7--|-4-----4-----4---|
A-|------------------|------------------|------------------|-----------------|
E-|------------------|------------------|------------------|-----------------|



Guitar 3: (Right before the other Instruments join the session)

e-|---2-|
B-|-3---|
G-|-----|
D-|-----|
A-|-----|
E-|-----|

------------------------------------------------------
Interlude (When the other Instruments join the session)
------------------------------------------------------

Guitar 1: (Main Riff Part I)

e|----------------|---------------------------|
B|----------------|---------------------------|
G|-12-12-12-12-11-|-11-11-11-11-9-4---(2)-(4)-|
D|----------------|---------------------------|
A|----------------|---------------------------|
E|----------------|---------------------------|


Guitar 2: (Main Riff Part II)

e|-------------|
B|-------------|
G|-4-4-4-4-2-0-|
D|-------------|
A|-------------|
E|-------------|


Guitar 4: (Bass is playing E, D, C and A)

 |-------Em---------|--------D?--------|-----C-----------|-----?-------|

e|------------------|------------------|-----------------|-------------|
B|-----0-----0------|-----0-----0------|-----------------|-------------|
G|---0-----0-----0--|---2-----2-----2--|-----0-----0-----|-4-4-4-4-2-0-|
D|-2-----2-----2----|-0-----0-----0----|---2-----2-----2-|-------------|
A|------------------|------------------|-3-----3-----3---|-------------|
E|------------------|------------------|-----------------|-------------|

or (I couldn't figure out the last part )

 |-------Em---------|--------D?--------|-----C-----------|-----A------------|

e|------------------|------------------|-----------------|------------------|
B|-----0-----0------|-----0-----0------|-----------------|------------------|
G|---0-----0-----0--|---2-----2-----2--|-----0-----0-----|-----4-----4------|
D|-2-----2-----2----|-0-----0-----0----|---2-----2-----2-|---2-----2-----2--|
A|------------------|------------------|-3-----3-----3---|-0-----0-----0----|
E|------------------|------------------|-----------------|------------------|



Guitar 3 (Right before the Verse)

e-|-------2-|
B-|-----3---|
G-|---4-----|
D-|-5-------|
A-|---------|
E-|---------|


---------------------
Verse:
---------------------

Guitar 4: (Bass is playing E, D, C and A)

 |-------Em---------|--------D?--------|-----C-----------|-----?-------|

e|------------------|------------------|-----------------|-------------|
B|-----0-----0------|-----0-----0------|-----------------|-------------|
G|---0-----0-----0--|---2-----2-----2--|-----0-----0-----|-4-4-4-4-2-0-|
D|-2-----2-----2----|-0-----0-----0----|---2-----2-----2-|-------------|
A|------------------|------------------|-3-----3-----3---|-------------|
E|------------------|------------------|-----------------|-------------|



or (I couldn't figure out the last part )



 |-------Em---------|--------D?--------|-----C-----------|-----A------------|

e|------------------|------------------|-----------------|------------------|
B|-----0-----0------|-----0-----0------|-----------------|------------------|
G|---0-----0-----0--|---2-----2-----2--|-----0-----0-----|-----4-----4------|
D|-2-----2-----2----|-0-----0-----0----|---2-----2-----2-|---2-----2-----2--|
A|------------------|------------------|-3-----3-----3---|-0-----0-----0----|
E|------------------|------------------|-----------------|------------------|


Guitar 3: (Right before the Interlude)


e-|---2-|
B-|-3---|
G-|-----|
D-|-----|
A-|-----|
E-|-----|

-----------------------------------
Interlude:
-----------------------------------

Guitar 1: (Main Riff Part I)

e|----------------|---------------------------|
B|----------------|---------------------------|
G|-12-12-12-12-11-|-11-11-11-11-9-4---(2)-(4)-|
D|----------------|---------------------------|
A|----------------|---------------------------|
E|----------------|---------------------------|


Guitar 2: (Main Riff Part II)

e|-------------|
B|-------------|
G|-4-4-4-4-2-0-|
D|-------------|
A|-------------|
E|-------------|


Guitar 4: (Bass is playing E, D, C and A)

 |-------Em---------|--------D?--------|-----C-----------|-----?-------|

e|------------------|------------------|-----------------|-------------|
B|-----0-----0------|-----0-----0------|-----------------|-------------|
G|---0-----0-----0--|---2-----2-----2--|-----0-----0-----|-4-4-4-4-2-0-|
D|-2-----2-----2----|-0-----0-----0----|---2-----2-----2-|-------------|
A|------------------|------------------|-3-----3-----3---|-------------|
E|------------------|------------------|-----------------|-------------|

or 

 |-------Em---------|--------D?--------|-----C-----------|-----A------------|

e|------------------|------------------|-----------------|------------------|
B|-----0-----0------|-----0-----0------|-----------------|------------------|
G|---0-----0-----0--|---2-----2-----2--|-----0-----0-----|-----4-----4------|
D|-2-----2-----2----|-0-----0-----0----|---2-----2-----2-|---2-----2-----2--|
A|------------------|------------------|-3-----3-----3---|-0-----0-----0----|
E|------------------|------------------|-----------------|------------------|



Guitar 3 (Right before the second Verse)

e-|-------2-|
B-|-----3---|
G-|---4-----|
D-|-5-------|
A-|---------|
E-|---------|


------------------
Verse 2:
------------------

Guitar 4: (Bass is playing E, D, C and A)

 |-------Em---------|--------D?--------|-----C-----------|-----?-------|

e|------------------|------------------|-----------------|-------------|
B|-----0-----0------|-----0-----0------|-----------------|-------------|
G|---0-----0-----0--|---2-----2-----2--|-----0-----0-----|-4-4-4-4-2-0-|
D|-2-----2-----2----|-0-----0-----0----|---2-----2-----2-|-------------|
A|------------------|------------------|-3-----3-----3---|-------------|
E|------------------|------------------|-----------------|-------------|

or 

 |-------Em---------|--------D?--------|-----C-----------|-----A------------|

e|------------------|------------------|-----------------|------------------|
B|-----0-----0------|-----0-----0------|-----------------|------------------|
G|---0-----0-----0--|---2-----2-----2--|-----0-----0-----|-----4-----4------|
D|-2-----2-----2----|-0-----0-----0----|---2-----2-----2-|---2-----2-----2--|
A|------------------|------------------|-3-----3-----3---|-0-----0-----0----|
E|------------------|------------------|-----------------|------------------|


Guitar 3: (Right before the Bridge)


e-|---2-|
B-|-3---|
G-|-----|
D-|-----|
A-|-----|
E-|-----|

-------------------------------------------------------
Bridge: (I'll never tell you all the different ways...)
-------------------------------------------------------

Guitar 4:

e-|------------------|------------------|------------------|-----------------|
B-|-----0------0-----|-----0------0-----|-----0-----0------|-----0-----0-----|
G-|---0------0-----0-|---0------0-----0-|---0-----0--------|---0-----0-----0-|
D-|-5------5-----5---|-4------4-----4---|-5-----5-----7-7--|-4-----4-----4---|
A-|------------------|------------------|------------------|-----------------|
E-|------------------|------------------|------------------|-----------------|


Guitar 3: (Right before the Interlude)


e-|---2-|
B-|-3---|
G-|-----|
D-|-----|
A-|-----|
E-|-----|

-------------------------
Interlude (With Solo):
-------------------------

Guitar 1: (Main Riff Part I)

e|----------------|---------------------------|
B|----------------|---------------------------|
G|-12-12-12-12-11-|-11-11-11-11-9-4---(2)-(4)-|
D|----------------|---------------------------|
A|----------------|---------------------------|
E|----------------|---------------------------|


Guitar 2: (Main Riff Part III) 

e|---------------|
B|---------------|
G|-4-4-4-5-4-2-0-| 2x
D|---------------|
A|---------------|
E|---------------|


------------------------------------
Solo: Right after Main Riff Part III
------------------------------------

e|-----------------------------|-----------|-----------------------|
B|-----------------------------|-----------|-----------------------|
G|-/2-/4-/7-/9-/11-/12-/14-/16-|-9-7-7-9-9-|-4-0-/4-4-4-2-0--------|
D|-----------------------------|-----------|-----------------4-2-4-|
A|-----------------------------|-----------|-----------------------|
E|-----------------------------|-----------|-----------------------|

e|----------------------|
B|----------------------|
G|-0-2-4-4------4-4-2-0-|
D|---------2--4---------|
A|----------------------|
E|----------------------|



Guitar 4: (Bass is playing E, D, C and A)

 |-------Em---------|--------D?--------|-----C-----------|-----?-------|

e|------------------|------------------|-----------------|-------------|
B|-----0-----0------|-----0-----0------|-----------------|-------------|
G|---0-----0-----0--|---2-----2-----2--|-----0-----0-----|-4-4-4-4-2-0-|
D|-2-----2-----2----|-0-----0-----0----|---2-----2-----2-|-------------|
A|------------------|------------------|-3-----3-----3---|-------------|
E|------------------|------------------|-----------------|-------------|

or (I couldn't figure out the last part )

 |-------Em---------|--------D?--------|-----C-----------|-----A------------|

e|------------------|------------------|-----------------|------------------|
B|-----0-----0------|-----0-----0------|-----------------|------------------|
G|---0-----0-----0--|---2-----2-----2--|-----0-----0-----|-----4-----4------|
D|-2-----2-----2----|-0-----0-----0----|---2-----2-----2-|---2-----2-----2--|
A|------------------|------------------|-3-----3-----3---|-0-----0-----0----|
E|------------------|------------------|-----------------|------------------|



Guitar 3 (Right before the Verse)

e-|-------2-|
B-|-----3---|
G-|---4-----|
D-|-5-------|
A-|---------|
E-|---------|


-----------
Verse 3:
-----------

Guitar 4: (Bass is playing E, D, C and A)

 |-------Em---------|--------D?--------|-----C-----------|-----?-------|

e|------------------|------------------|-----------------|-------------|
B|-----0-----0------|-----0-----0------|-----------------|-------------|
G|---0-----0-----0--|---2-----2-----2--|-----0-----0-----|-4-4-4-4-2-0-|
D|-2-----2-----2----|-0-----0-----0----|---2-----2-----2-|-------------|
A|------------------|------------------|-3-----3-----3---|-------------|
E|------------------|------------------|-----------------|-------------|

or 

 |-------Em---------|--------D?--------|-----C-----------|-----A------------|

e|------------------|------------------|-----------------|------------------|
B|-----0-----0------|-----0-----0------|-----------------|------------------|
G|---0-----0-----0--|---2-----2-----2--|-----0-----0-----|-----4-----4------|
D|-2-----2-----2----|-0-----0-----0----|---2-----2-----2-|---2-----2-----2--|
A|------------------|------------------|-3-----3-----3---|-0-----0-----0----|
E|------------------|------------------|-----------------|------------------|


Guitar 3: (Right before the Bridge)


e-|---2-|
B-|-3---|
G-|-----|
D-|-----|
A-|-----|
E-|-----|

-------------------------------------------------------
Bridge: (I'll never tell you all the different ways...)
-------------------------------------------------------
Guitar 4:

e-|------------------|------------------|------------------|-----------------|
B-|-----0------0-----|-----0------0-----|-----0-----0------|-----0-----0-----|
G-|---0------0-----0-|---0------0-----0-|---0-----0--------|---0-----0-----0-|
D-|-5------5-----5---|-4------4-----4---|-5-----5-----7-7--|-4-----4-----4---|
A-|------------------|------------------|------------------|-----------------|
E-|------------------|------------------|------------------|-----------------|


That's it
Hope you like it
Please Vote it.

Thanks


Добавлено: 06.10.2013
Другие материалы по этой песне:

Страница создана 02.04.2012
http://primanota.ru/cure/a-chain-of-flowers-chords.htm
Привет, Гость.
Предлагаем пройти революционный курс по гитаре.
Подарок от PrimaNota.Ru, забирай!