PrimaNota.ru - самый крупный в мире бесплатный архив песенных текстов, аккордов, табулатур и нот


Cœur de Pirate - Oublie-Moi - бас-таба, видео

Регистрация Запомнить меня
Войти через:  Facebook Google Twitter Vk Yandex Mail.ru

Cœur de Pirate - Oublie-Moi - бас-таба, видео

Печатать
Просмотров: 73
Авторы музыки: Béatrice Martin
Авторы текста: Béatrice Martin
-------------------------------------------------------------------------------
                             OUBLIE-MOI - Coeur de pirate
-------------------------------------------------------------------------------
Tabbed by: julienado
E-mail: julie2483@hotmail.com

Tuning: Standard

VERSE 1 - Bass comes in at 0:18

G|----------------------------------------------------------------------------------------|
D|----------------------------------------------------------------------------------------|
A|-------1-3-----3---------------------------------------------------------3-----3--------|
E|---1-4-------------------3-----3---------4-----4---------1-----1------------------------|
 
   |   |   |   |   |   |   |   |   |   |   |   |   |   |   |   |   |   |   |   |   |   |   

G|--------------------------------------------------------------------------------------------|
D|--------------------------------------------------------------------------------------------|
A|-----------------------------------------------1-3-----3------------------------------------|
E|-3-----3---------4-----4---------1---------1-4-------------------3-----3---------4-----4----|

   |   |   |   |   |   |   |   |   |   |   |   |   |   |   |   |   |   |   |   |   |   |   |     

G|--------------------------------------------------------------------------------|
D|--------------------------------------------------------------------------------|
A|-----------------3-----3--------------------------------------------------------|
E|-1-----1-------------------------3-----3---------4------------------------------|

   |   |   |   |   |   |   |   |   |   |   |   |   |   |   |   |   |   |   |   |  

CHORUS

G|--------------------------------------------------------------------------------|
D|--------------------------------------------------------------------------------|
A|-6-----6---------6-----6--------------------------------------------------------|
E|---------------------------------6-----6---------6-----6---------8-----8--------|

   |   |   |   |   |   |   |   |   |   |   |   |   |   |   |   |   |   |   |   |   

G|------------------------------------------------|          
D|------------------------------------------------|   X2
A|------------------------------------------------|   
E|-8-----8---------4-----4---------4-----4--------|    

   |   |   |   |   |   |   |   |   |   |   |   |   

VERSE 2

G|----------------------------------------------------------------------------------------------|
D|----------------------------------------------------------------------------------------------|
A|-3-----3---------3-----3-------1-3-----3------------------------------------------------------|
E|-------------------------------------------------3-----3---------4-----4---------1-----1------|

   |   |   |   |   |   |   |   |   |   |   |   |   |   |   |   |   |   |   |   |   |   |   |   |

G|----------------------------------------------------------------------------------------------|
D|----------------------------------------------------------------------------------------------|
A|-3-----3-------------------------------------------------------1-3-----3----------------------|
E|-----------------3-----3---------4-----4---------1-----1-------------------------3-----3------|

   |   |   |   |   |   |   |   |   |   |   |   |   |   |   |   |   |   |   |   |   |   |   |   |

G|---------------------------------------------------------------------------------------------|
D|---------------------------------------------------------------------------------------------|
A|---------------------------------3-----3-----------------------------------------------------|
E|-4-----4---------1-----1-------------------------3-----3---------4-----4---------1---------1-|

   |   |   |   |   |   |   |   |   |   |   |   |   |   |   |   |   |   |   |   |   |   |   |   


G|----------------------------------------------------------------------------------------------|
D|----------------------------------------------------------------------------------------------|
A|---1-3-----3--------------------------------------------------------3-----3-------------------|
E|-4---------------3-----3---------4-----4---------1-----1-------------------------3-----3------|

   |   |   |   |   |   |   |   |   |   |   |   |   |   |   |   |   |   |   |   |   |   |   |   |  

G|--------------------------------|
D|--------------------------------|
A|--------------------------------|
E|-4------------------------------|

   |   |   |   |   |   |   |   |  

CHORUS

G|--------------------------------------------------------------------------------|
D|--------------------------------------------------------------------------------|
A|-6-----6---------6-----6--------------------------------------------------------|
E|---------------------------------6-----6---------6-----6---------8-----8--------|

   |   |   |   |   |   |   |   |   |   |   |   |   |   |   |   |   |   |   |   |   

G|------------------------------------------------|          
D|------------------------------------------------|   X2
A|------------------------------------------------|   
E|-8-----8---------4-----4---------4-----4--------|    

   |   |   |   |   |   |   |   |   |   |   |   |   

BRIDGE (NO BASS)


CHORUS

G|--------------------------------------------------------------------------------|
D|--------------------------------------------------------------------------------|
A|-6-----6---------6-----6--------------------------------------------------------|
E|---------------------------------6-----6---------6-----6---------8-----8--------|

   |   |   |   |   |   |   |   |   |   |   |   |   |   |   |   |   |   |   |   |   

G|------------------------------------------------|          
D|------------------------------------------------|   X2
A|------------------------------------------------|   
E|-8-----8---------4-----4---------4-----4--------|    

   |   |   |   |   |   |   |   |   |   |   |   |   

Добавлено: 16.04.2016
Другие материалы по этой песне:
  • Аккорды и текст

Страница создана 16.04.2016
http://primanota.ru/cur-de-pirate/oublie-moi-chords.htm
Привет, Гость.
Предлагаем пройти революционный курс по гитаре.
Подарок от PrimaNota.Ru, забирай!