PrimaNota.ru - самый крупный в мире бесплатный архив песенных текстов, аккордов, табулатур и нот


Cœur de Pirate - Auroras Theme - таба, видео

Регистрация Запомнить меня
Войти через:  Facebook Google Twitter Vk Yandex Mail.ru

Cœur de Pirate - Auroras Theme - таба, видео

Печатать
Просмотров: 127
-------------------------------------------------------------------------------
                             AURORA'S THEME - Coeur De Pirate
-------------------------------------------------------------------------------
Tabbed by: Lara10


Tuning: Standard         

1. guitar

e|---------------------------------------------------------------------------|
B|---------------------------------------------------------------------------|
G|-0-2-4-2-0-4---0-2-4-2-0-4---4-2-0---0-2-0----4-5-4---0-2-0----------------|
D|-------------0-------------0-------4------4-2-------4------4-2-------------|
A|---------------------------------------------------------------------------|
E|---------------------------------------------------------------------------|

2. guitar
                      Em      G  
e|---------------------0------3----------------------------------------------|
B|---------------------0------0----------------------------------------------|
G|---------------------0--7x--0--7x------------------------------------------| 2x
D|---------------------2------0----------------------------------------------|
A|---------------7-7---2------2----------------------------------------------|
E|-0-0-0-0-0-0-0-----0-0----3-3----------------------------------------------|
   
 
    Am        D      Em
e|---0--------2-------0------------------------------------------------------|
B|---1--------3-------0------------------------------------------------------|
G|---2--3x----2--3x---0--7x--------------------------------------------------| 2x
D|---2------0-0-------2------------------------------------------------------|
A|-0-0----------------2------------------------------------------------------|
E|------------------0-0------------------------------------------------------|

Добавлено: 11.05.2016
Вам также может быть интересно:
Другие материалы по этой песне:
  • Аккорды и текст

Страница создана 11.05.2016
http://primanota.ru/cur-de-pirate/auroras-theme-chords.htm
Привет, Гость.
Предлагаем пройти революционный курс по гитаре.
Подарок от PrimaNota.Ru, забирай!