PrimaNota.ru - самый крупный в мире бесплатный архив песенных текстов, аккордов, табулатур и нот


Culture - Deforestation - таба, видео

Регистрация Запомнить меня
Войти через:  Facebook Google Twitter Vk Yandex Mail.ru

Culture - Deforestation - таба, видео

Печатать
Просмотров: 86
Уроки эстрадного вокала в Санкт-Петербурге
CULTURE - DFORESTATION

    e|------------------------------------------|
    b|------------------------------------------|
GTR G|------------------------------------------|
1+2 D|-777777777777-8888-77777777-10101010-8888-| x6
    A|------------------------------------------|
    D|-000000000000-0000-00000000-0-0-0-0--0000-|

    e|------------------------------------------|
    b|------------------------------------------|
GTR G|------------------------------------------|
1+2 D|-0----------------------------------------|
    A|-0----------------------------------------|
    D|-0----------------------------------------|

    e|--------------------------------|
    b|--------------------------------|
GTR G|--------------------------------|
 1  D|--------------------------------| x2
    A|0-0-0-0-0-0-0-0-0-0-0-0-0-0-0-0-|
    D|0-0-0-0-0-0-0-0-0-0-0-0-0-0-0-0-|
      P M P M P M P M P M P M P M P M

    e|---------------------------------|
    b|---------------------------------|
GTR G|---------------------------------|
 2  D|---------------------------------| x2
    A|-5-6-5-3-5-6-5-3-5-6-5-3-5-6-5-3-|
    D|---------------------------------|
       P M P M P M P M P M P M P M P M

    e|---------------------------------|
    b|---------------------------------|
GTR G|-7----5----8-----8PH-8PH-8PH-8PH-|
 1  D|---------------------------------| 1,3
    A|-5----3----6---------------------|
    D|---------------------------------|

    e|---------------------------------|
    b|---------------------------------|
GTR G|---------------------------------|
 2  D|---------------------------------| 1,3
    A|-5-6-5-3-5-6-5-3-5-6-5-3-5-6-5-3-|
    D|---------------------------------|
       P M P M P M P M P M P M P M P M

    e|---------------------------------|
    b|---------------------------------|
GTR G|-7----5----8---------------------|
 1  D|---------------------------------| 2,4
    A|-5----3----6-----6PH-6PH-6PH-6PH-|
    D|---------------------------------|

    e|---------------------------------|
    b|---------------------------------|
GTR G|---------------------------------|
 2  D|---------------------------------| 2,4
    A|-5-6-5-3-5-6-5-3-5-6-5-3-5-6-5-3-|
    D|---------------------------------|
       P M P M P M P M P M P M P M P M

    e|----------------|
    b|----------------|
GTR G|----------------|
1+2 D|----------------| x8
    A|-0000-0000-0001-|
    D|-0000-0000-0001-|
       PMPM PMPM PMPM

    e|--------------------------------------------|
    b|--------------------------------------------|
GTR G|--------8-7--------8-7--------8-7-5----7----|
1+2 D|-0----------0----------0--------------------| x2
    A|-0------6-5-0------6-5-0------6-5-3----5----|
    D|-0----------0----------0--------------------|

    e|-----------------------------------------------------------|
    b|-----------------------------------------------------------|
GTR G|-------------8-7-------------8-7-------------8-7-5----7----|
1+2 D|-----------------------------------------------------------| x2
    A|-0-0-00-0-00-6-5-0-0-00-0-00-6-5-0-0-00-0-00-6-5-3----5----|
    D|-0-0-00-0-00-----0-0-00-0-00-----0-0-00-0-00---------------|
       P M PM PMPM     P M PM PMPM     P M PM PMPM

Slow down on final two chords

    e|------------------------------------------|
    b|------------------------------------------|
GTR G|------------------------------------------|
1+2 D|-0----------------------------------------|
    A|-0----------------------------------------|
    D|-0----------------------------------------|

    e|--------------------------------|
    b|--------------------------------|
GTR G|--------------------------------|
 1  D|--------------------------------| x2
    A|0-0-0-0-0-0-0-0-0-0-0-0-0-0-0-0-|
    D|0-0-0-0-0-0-0-0-0-0-0-0-0-0-0-0-|
      P M P M P M P M P M P M P M P M

    e|---------------------------------|
    b|---------------------------------|
GTR G|---------------------------------|
 2  D|---------------------------------| x2
    A|-5-6-5-3-5-6-5-3-5-6-5-3-5-6-5-3-|
    D|---------------------------------|
       P M P M P M P M P M P M P M P M

    e|---------------------------------|
    b|---------------------------------|
GTR G|-7----5----8-----8PH-8PH-8PH-8PH-|
 1  D|---------------------------------| 1,3
    A|-5----3----6---------------------|
    D|---------------------------------|

    e|---------------------------------|
    b|---------------------------------|
GTR G|---------------------------------|
 2  D|---------------------------------| 1,3
    A|-5-6-5-3-5-6-5-3-5-6-5-3-5-6-5-3-|
    D|---------------------------------|
       P M P M P M P M P M P M P M P M

    e|---------------------------------|
    b|---------------------------------|
GTR G|-7----5----8---------------------|
 1  D|---------------------------------| 2,4
    A|-5----3----6-----6PH-6PH-6PH-6PH-|
    D|---------------------------------|

    e|---------------------------------|
    b|---------------------------------|
GTR G|---------------------------------|
 2  D|---------------------------------| 2,4
    A|-5-6-5-3-5-6-5-3-5-6-5-3-5-6-5-3-|
    D|---------------------------------|
       P M P M P M P M P M P M P M P M

    e|----------------|
    b|----------------|
GTR G|----------------|
1+2 D|----------------| x8
    A|-0000-0000-0001-|
    D|-0000-0000-0001-|
       PMPM PMPM PMPM

    e|--------------------------------------------|
    b|--------------------------------------------|
GTR G|--------8-7--------8-7--------8-7-5----7----|
1+2 D|-0----------0----------0--------------------| x2
    A|-0------6-5-0------6-5-0------6-5-3----5----|
    D|-0----------0----------0--------------------|

    e|-----------------------------------------------------------|
    b|-----------------------------------------------------------|
GTR G|-------------8-7-------------8-7-------------8-7-5----7----|
1+2 D|-----------------------------------------------------------| x2
    A|-0-0-00-0-00-6-5-0-0-00-0-00-6-5-0-0-00-0-00-6-5-3----5----|
    D|-0-0-00-0-00-----0-0-00-0-00-----0-0-00-0-00---------------|
       P M PM PMPM     P M PM PMPM     P M PM PMPM

Slow down on final two chords

    e|----------------|
    b|----------------|
GTR G|----------------|
1+2 D|----------------| x4
    A|-0000-0000-0001-|
    D|-0000-0000-0001-|
       PMPM PMPM PMPM

    e|----------------|
    b|----------------|
GTR G|----------------|
 1  D|----------------| x4
    A|-0000-0000-0001-|
    D|-0000-0000-0001-|
       PMPM PMPM PMPM

    e|---------------------------------------------|
    b|---------------------------------------------|
GTR G|-77777777-88888888-1010101010101010-88888888-|
 2  D|---------------------------------------------|
    A|-55555555-66666666-8-8-8-8-8-8-8-8--66666666-|
    D|---------------------------------------------|
Добавлено: 23.06.2013
Вам также может быть интересно:
Другие материалы по этой песне:
  • Аккорды и текст

Страница создана 23.06.2013
http://primanota.ru/culture/deforestation-chords.htm
Привет, Гость.
Предлагаем пройти революционный курс по гитаре.
Подарок от PrimaNota.Ru, забирай!