PrimaNota.ru - самый крупный в мире бесплатный архив песенных текстов, аккордов, табулатур и нот


Cults - Never Saw The Point - бас-таба, видео

Регистрация Запомнить меня
Войти через:  Facebook Google Twitter Vk Yandex Mail.ru

Cults - Never Saw The Point - бас-таба, видео

Печатать
Просмотров: 128
Авторы: Madeline Follin, Brian Oblivion

Main Riff

G|------------------------------------------|
D|------------------------------------------|
A|--7-7---7--7--7---97--5-5---5---2-2----2--|
E|------77-7-----77--------55--5------2-----|

G|------------------------------------------|
D|--------------------------------5-4-2-0---|
A|--7-7---7--7--7---97--5-5---5-------------|
E|------77-7-----77--------55--5------------|

Second Verse
G|-------------------------------------|
D|-------------------------------------|
A|--7777777777777777-555555-5-22222225-|
E|-------------------------5-----------|

First Ending to Second Verse
G|-------------------------------------|
D|----------------------------5555575--|
A|--7777777777777777-55555555----------|
E|-------------------------------------|

Second Ending to Second Verse
G|-------------------------------------|
D|-------------------------------------|
A|--7777777777777777-5-52-2---7757975--|
E|-------------------------5-----------|
Добавлено: 10.09.2015
Другие материалы по этой песне:
  • Аккорды и текст

Страница создана 10.09.2015
http://primanota.ru/cults/never-saw-point-chords.htm
Привет, Гость.
Предлагаем пройти революционный курс по гитаре.
Подарок от PrimaNota.Ru, забирай!