PrimaNota.ru - самый крупный в мире бесплатный архив песенных текстов, аккордов, табулатур и нот


Cult - Wild Flower - аккорды и текст, таба, бас-таба, видео

Регистрация Запомнить меня
Войти через:  Facebook Google Twitter Vk Yandex Mail.ru

Cult - Wild Flower - аккорды и текст, таба, бас-таба, видео

Печатать
Просмотров: 239
Авторы музыки: Billy Duffy
Авторы текста: Ian Astbury
Wild Flower
Cult
                     Wild Flower
Performed By: The Cult
LP: Pure Cult

Tabbed By: Lee Spurrell
leespurrell@hotmail.com


    Play One Time (Come in with drummer)                       
G-----------------------------------------------------------------------
D-----------------------------------------------------------------------
A---2--0--2--2-----2--0--2--2-----2--0--2--2-----2--0--2--2-------------
E-----------------------------------------------------------------------
                                    

       Verse                                 
G-----------------------------------------------------------------------
D-----------------------------------------------------------------------
A------2--0--2--2-----2--0--2--2-----5--3--5--5-----7--5--7--7-----2----
E-----------------------------------------------------------------------
                                    

                                    
G-----------------------------------------------------------------------
D-----------------------------------------------------------------------
A---0--2--2-----2--0--2--2-----5--3--5--5-----7--5--7--7-----2--0--2----
E-----------------------------------------------------------------------
                                    

                                    
G-----------------------------------------------------------------------
D-----------------------------------------------------------------------
A---2-----2--0--2--2-----5--3--5--5-----7--5--7--7-----2--2--2--2--2----
E-----------------------------------------------------------------------
                                    

                                    
G-----------------------------------------------------------------------
D-----------------------------------------------------------------------
A---2--2--2--2--2--2--2--5--5--5--5--5--5--7----------------------------
E-----------------------------------------------------------------------
                                    

                   Chorus                    
G-----------------------------------------------------------------------
D-----------------------------------------------------------------------
A-----------------------------------------------------------------------
E------------------------------------7--7--7--7--7--7--7--7--7--7--7----
                                    

                                    
G-----------------------------------------------------------------------
D-----------------------------------------------------------------------
A-----------------------------------------------------------------------
E---7--0--0--0--0--0--0--0--0--5-----5--5--5--5--5--5--5----------------
                                    

                                  Solo                
G-----------------------------------------------------------------------
D-----------------------------------------------------------------------
A-----------------------------------------------------------------------
E------------------------------------------------------2--2--2--2--2----
                                    

                                    
G-----------------------------------------------------------------------
D-----------------------------------------------------------------------
A-----------------------------------------------------------------------
E---2--2--2--2--2--2--2--2--2--2--2--2--2--2--2--2--2--2--2--2--2--2----
                                    

                                    
G-----------------------------------------------------------------------
D-----------------------------------------------------------------------
A-----------------------------------------------------------------------
E---2--2--2--2--2--2--2--2--2--2--2--2--2--2--2--2--2--2--2--2--2--2----
                                    

                                    
G-----------------------------------------------------------------------
D-----------------------------------------------------------------------
A---2--2--2--2--2--2--2--2--2--2--2--2--2--2--2--2--2--2--2--2--2--2----
E-----------------------------------------------------------------------
                                    

                                    
G-----------------------------------------------------------------------
D-----------------------------------------------------------------------
A---2--2----------------------------------------------------------------
E---------2-----2-------------------------------------------------------
                                    

    Verse After Solo                                  
G-----------------------------------------------------------------------
D-----------------------------------------------------------------------
A------2--0--2--2-----2--0--2--2-----2--0--2--2-----2--0--2--2-----2----
E-----------------------------------------------------------------------
                                    

                                    
G-----------------------------------------------------------------------
D-----------------------------------------------------------------------
A---0-----2--2-----2--0--2--2-----2--0--2--2-----0--2-------------------
E-----------------------------------------------------------------------
                                    

             Ride the chorus until the end            
G-----------------------------------------------------------------------
D-----------------------------------------------------------------------
A-----------------------------------------------------------------------
E---------------------7--7--7--7--7--7--7--7--7--7--7--7--0--0--0--0----
                                    

                                    
G-----------------------------------------------------------------------
D-----------------------------------------------------------------------
A-----------------------------------------------------------------------
E---0--0--0--0--5-----5--5--5--5--5--5--5-------------------------------
                                    

                         Ending              
G-----------------------------------------------------------------------
D-----------------------------------------------------------------------
A-----------------------------------------------------------------------
E------------------------------------------7--7--7--7--7--7--7--7--7----
                                    

                                    
G-----------------------------------------------------------------------
D-----------------------------------------------------------------------
A-----------------------------------------------------------------------
E---7--7--7--0--0--0--0--0--0--0--0--5--5--5--5--5--5--5--5-----5--0----
                                    

                                    
G-----------------------------------------------------------------------
D-----------------------------------------------------------------------
A-----------------------------------------------------------------------
E---7~~~-----7/3--------------------------------------------------------
                                    



================================================
==              TABLATURE EXPLANATION               ==
================================================

----------                ----------                ----t---
----5h8--- Hammeron       ----(8)--- Ghost          ----6--- Tap
----------                ---------- Note           --------
----5p8--- Pulloff        ----------                --------

----------                ----------                -----p--
----5/8--- Slide Up       -----x---- Dead           -----7-- Pop
----------                ---------- Note           --s-----
----58--- Slide Down     ----------                --5----- Slap 

----------                ||------|| Repeat         --------
----5~~~-- Vibrato        ||*----*||                ---5^--- Bend
----------                ||*----*||                --------
----------                ||------||                --------

----------                ----------                --------
-4:------- Time           ----------                --------
-4:------- Signature      ----------                --------
----------                ----------                --------

Rhythm:
  w = whole note            W = dotted whole
  h = half note             H = dotted half
  q = quarter note          Q = dotted quarter
  e = eighth note           E = dotted eighth
  s = sixteenth note        S = dotted sixteenth
  t = 32nd note             T = dotted 32nd
  x = 64th note             X = dotted 64th
  ^ = triplet

================================================
==            Created with a demo version of BUCKET O' TAB            ==
==              tablature creation software for Windows               ==
==         For more info email gse@his.com          ==
================================================
Добавлено: 10.10.2014
Другие материалы по этой песне:

Страница создана 07.03.2012
http://primanota.ru/cult/wild-flower-chords.htm
Привет, Гость.
Предлагаем пройти революционный курс по гитаре.
Подарок от PrimaNota.Ru, забирай!