PrimaNota.ru - самый крупный в мире бесплатный архив песенных текстов, аккордов, табулатур и нот


Cult - This Night In The City Forever - бас-таба, видео

Регистрация Запомнить меня
Войти через:  Facebook Google Twitter Vk Yandex Mail.ru

Cult - This Night In The City Forever - бас-таба, видео

Печатать
Просмотров: 52
----------------------------------------------------------------------------
                             THIS NIGHT IN THE CITY FOREVER - The Cult
----------------------------------------------------------------------------


Tabbed by: WibbleWobble
E-mail: organisedchaos@talktalk.net

Tuning: standard EADG

From "Choice Of Weapon" 2012
Fairly straightforward,   split into three parts

Bass comes in at 01:12.   Play this till 02:31
G|---------------------------------------------------------------------------|
D|---------------------------------------------------------------------------|
A|-2-2-2--0-0-0-0---0--------------------------------------------------------|
E|-------2--------2----------------------------------------------------------|

then the bridge 02:32-03:07
G|---------------------------------------------------------------------------|
D|-/12------------------------12--10-9---------------------------------------|
A|----------------------10/12-------------5----------------------------------|
E|---------------------------------------------------------------------------|

Play out 03:08-04:24
G|---------------------------------------------------------------------------|
D|-----------------------------------------2h3-2-----------------------------|
A|-5-5-5-5-5-5-5-5-5-5-5-5-5-5-5-5-3-3-3-3-------3---------------------------|
E|---------------------------------------------------3-3-3-3-3-3-3-3---------|
Добавлено: 28.04.2016
Другие материалы по этой песне:
  • Аккорды и текст

Страница создана 28.04.2016
http://primanota.ru/cult/this-night-in-city-forever-chords.htm
Привет, Гость.
Предлагаем пройти революционный курс по гитаре.
Подарок от PrimaNota.Ru, забирай!