PrimaNota.ru - самый крупный в мире бесплатный архив песенных текстов, аккордов, табулатур и нот


Cult - Sun King - текст песни, таба, бас-таба, видео

Регистрация Запомнить меня
Войти через:  Facebook Google Twitter Vk Yandex Mail.ru

Cult - Sun King - текст песни, таба, бас-таба, видео

Печатать
Просмотров: 251
Author: Jared Causey
Band: The cult
Song: Sun king

 Intro: Bass for guitar, play 5 times

|-------------------------------|--------------------------------|
|-------------------------------|--------------------------------|
|-------------------------------|--------------------------------|
|-------------------------------|--------------------------------|
|------------------3-3--5-5-----|--------------------------------|
|-3/5—3/5-3/5-3/5---------------|--3/5—3/5-3/5-3/5—-3~~~---------|

  
Intro 2: solo enters on third bass riff (the fourth measure is tabbed
to sound the same as the second measure; not the same as the song)

|-------------------------------|--------------------------------|
|-------------------------------|--------------------------------|
|------------5h7p5-^7-7-5-------|--5p4----7-5-(4)----------------|
|--5/7~-------------------------|-----------------5-7~-----------|
|-------------------------------|--------------------------------|
|-------------------------------|--------------------------------|

                                 
|-------------------------------|--------------------------------|
|------------13h15p13-^15-15-13-|--13p12---15-13-12--------------|
|--12/14------------------------|--------------------12-14~------|
|-------------------------------|--------------------------------|
|-------------------------------|--------------------------------|
|-------------------------------|--------------------------------|

  Main riff: If this does not sound heavy enough it is because 
             Guitar 2 plays a power cord on each slide.
3/5: -5-
     -3-

5/7: -7-
     -5-


|-------------------------------|--------------------------------|
|-------------------------------|--------------------------------|
|-------------------------------|--------------------------------|
|---------7-5-4-----------------|--------7-5-4-------------------|
|-------------------------------|--3/5---------------------------|
|--3/5--------------------------|--------------------------------|


|-------------------------------|--------------------------------|
|-------------------------------|--------------------------------|
|-------------------------------|--------------------------------|
|--------7-5-4------------------|--------7-5-4-------------------|
|--5/7--------------------------|--3/5---------------------------|
|-------------------------------|--------------------------------|
Добавлено: 01.06.2012
Другие материалы по этой песне:

Страница создана 24.02.2012
http://primanota.ru/cult/sun-king-chords.htm
Привет, Гость.
Предлагаем пройти революционный курс по гитаре.
Подарок от PrimaNota.Ru, забирай!