PrimaNota.ru - самый крупный в мире бесплатный архив песенных текстов, аккордов, табулатур и нот


Cult - Rain Live - бас-таба, видео

Регистрация Запомнить меня
Войти через:  Facebook Google Twitter Vk Yandex Mail.ru

Cult - Rain Live - бас-таба, видео

Печатать
Просмотров: 162
Уроки эстрадного вокала в Санкт-Петербурге
Title: Rain
Artist: The Cult
Album: Pure Cult cd2
Tabber: Steph
Email: cyberbassist@hotmail.com


intro/chorus

Guitar arranged for bass intro

G|--18~-19--16-15---------|
D|------------------------|
A|------------------------|
E|------------------------|

    Db                               B               F#               2X
G|----------------------------------------------------------------------|
D|----------------------------------------------------------------------|
A|-/4-4-4-4-4-4-4-4-4-4-4-4-4-4-4-4--2-2-2-2-2-2-2-2--------------------|
E|---------------------------------------------------2-2-2-2-2-2-2-2----|

Verse
    Db                              B               F#
G|----------------------------------------------------------------------|
D|----------------------------------------------------------------------|
A|-4-4-4-4-4-4-4-2H4-4-4-4-4-4-4-4--2-2-2-2-2-2-2-2---------------------|
E|--------------------------------------------------2-2-2-2-2-2-2-2-----|


Pre-Chorus
   Db              E               B               F#                   2X
G|----------------------------------------------------------------------|
D|----------------------------------------------------------------------|
A|-4-4-4-4-4-4-4-4-----------------2-2-2-2-2-2-2-2----------------------|
E|-----------------0-0-0-0-0-0-0-0-----------------2-2-2-2-2-2-2-2------|


Fill (1:18)
    Dd            3X     Punch!            
G|-------------------||-------------------------------------------------|
D|*-----------------*||--2----------------------------------------------|
A|*-4-4-4-4-4-4-4-2-*||----2--------------------------------------------|
E|-------------------||-------------------------------------------------|


Interlude (2:29)
     D                      C         G
G|----------------------------------------------------------|
D|-*-----------------------------------------444---4------*-|
A|-*/4-444-4-4--2-4-444-4--4--2-2-222---2-2-------4-----2-*-|
E|-------------4------------4-------------------------4-----|


Any correction or comment, please email me: cyberbassist@hotmail.com
Enjoy
KeeP IT SiMpLE!

Добавлено: 29.03.2012
Другие материалы по этой песне:
  • Аккорды и текст

Страница создана 29.03.2012
http://primanota.ru/cult/rain-live-chords.htm
Привет, Гость.
Предлагаем пройти революционный курс по гитаре.
Подарок от PrimaNota.Ru, забирай!