PrimaNota.ru - самый крупный в мире бесплатный архив песенных текстов, аккордов, табулатур и нот


Cult - Outlaw - текст песни, таба, видео

Регистрация Запомнить меня
Войти через:  Facebook Google Twitter Vk Yandex Mail.ru

Cult - Outlaw - текст песни, таба, видео

Печатать
Просмотров: 114
Авторы музыки: Billy Duffy
Авторы текста: Ian Astbury
"Outlaw"

From the Album "Electric"
Released 1987
As Performed By The Cult
Written by Ian Astbury and Billy Duffy

Guitar is Normally
        e
        B
        G
        D
        A
        E

Legend:  / - slide up
         \ - slide down
         X - strings muted with "pick" hand
         ~ - vibrato
         * - do not let string ring
         ) - bend ---> if a Q appears to the right of this, indicates a 1/4 bend.
                       Hence, 4)Q means a string om the 4th fret is 
                       bending by 1/4; 4)H means a string on the 4th fret is bending
                       by 1/2; 9)F means a Full bend on a string on the 9th fret.
         ( - bring back -->bring the string back to original tone. For example,
                           if you see 4)H( this meansbend the string on the 4th fret by 1/2
                           then bring the string back to original tone.
         h - hammer the string
         p - pull the string



Play 2 times
 D               D               G               F
|----------------------------------------------------------------|
|----------------------------------------------------------------|
|----------------------------------------------------------------|
|7-X-X-X-X-X-X-X-7-X-X-X-X-X-X-X---------------------------------|
|5-X-X-X-X-X-X-X-5-X-X-X-X-X-X-X-5-X-X-X-X-X-X-X-3-X-X-X-X-X-X-X-|
|--------------------------------3-X-X-X-X-X-X-X-1-X-X-X-X-X-X-X-|
|                                                                |
|                                                                |
|----------------------------------------------------------------|
|----------------------------------------------------------------|
|----------------------------------------------------------------|
|-----3~-3~-----------3~-3~--------5*-5)H--5~----------3~--------|
|3h4h5------5~---3h4h5------5~---3---------------0h3h5-----------|
|----------------------------------------------------------------|

 D                        G
|--------------------------------------------------|
|--------------------------------------------------|
|--------------------------------------------------|
|5-/7--5-/7---5/7\5/7-\5---------------------------|
|3-/5--3-/5---3/5\3/5-\3--3/5-5\3/5---3/5\3/5-\3---|
|-------------------------1/3-3\1/3---1/3\1/3-\1---|

 D                        G
|--------------------------------------------------|
|----------------------------------------------5---|
|----------------------------------------------4---|
|5-/7--5-/7---5/7\5/7-\5-----------------------3---|
|3-/5--3-/5---3/5\3/5-\3--3/5-5\3/5---3--3-2---3---|
|-------------------------1/3-3\1/3---1--1-0-------|

 A                        D
|--------------------------------------------------|
|--------------------------------------------------|
|--------------------------------------------------|
|5-2-2---2---2---2----2---5-/7--5-/7---5/7\5/7-\5--|
|3-0-0-3-0---0-3-0-3~-0---3-/5--3-/5---3/5\3/5-\3--|
|--------------------------------------------------|

 G                        D
|--------------------------------------------------|
|---------------------5---5------------------------|
|---------------------4---4------------------------|
|---------------------3---3--7-7-\5/7--5/7\5/7-\5--|
|3/5-5\3/5---3/5\3/5--3---3--5-5-\3/5--3/5\3/5-\3--|
|1/3-3\1/3---1/3\1/3-------------------------------|

Play 2 times
 D               D               G               F
|----------------------------------------------------------------|
|----------------------------------------------------------------|
|----------------------------------------------------------------|
|7-X-X-X-X-X-X-X-7-X-X-X-X-X-X-X---------------------------------|
|5-X-X-X-X-X-X-X-5-X-X-X-X-X-X-X-5-X-X-X-X-X-X-X-3-X-X-X-X-X-X-X-|
|--------------------------------3-X-X-X-X-X-X-X-1-X-X-X-X-X-X-X-|
|                                                                |
|                                                                |
|----------------------------------------------------------------|
|----------------------------------------------------------------|
|----------------------------------------------------------------|
|-----3~-3~-----------3~-3~--------5*-5)H--5~----------3~--------|
|3h4h5------5~---3h4h5------5~---3---------------0h3h5-----------|
|----------------------------------------------------------------|

 D                        G
|--------------------------------------------------|
|--------------------------------------------------|
|--------------------------------------------------|
|5-/7--5-/7---5/7\5/7-\5---------------------------|
|3-/5--3-/5---3/5\3/5-\3--3/5-5\3/5---3/5\3/5-\3---|
|-------------------------1/3-3\1/3---1/3\1/3-\1---|

 D                        G
|--------------------------------------------------|
|----------------------------------------------5---|
|----------------------------------------------4---|
|5-/7--5-/7---5/7\5/7-\5-----------------------3---|
|3-/5--3-/5---3/5\3/5-\3--3/5-5\3/5---3--3-2---3---|
|-------------------------1/3-3\1/3---1--1-0-------|

 A                        D
|--------------------------------------------------|
|--------------------------------------------------|
|--------------------------------------------------|
|5-2-2---2---2---2----2---5-/7--5-/7---5/7\5/7-\5--|
|3-0-0-3-0---0-3-0-3~-0---3-/5--3-/5---3/5\3/5-\3--|
|--------------------------------------------------|

 G                        D
|--------------------------------------------------|
|---------------------5---5------------------------|
|---------------------4---4------------------------|
|---------------------3---3--7-7-\5/7--5/7\5/7-\5--|
|3/5-5\3/5---3/5\3/5--3---3--5-5-\3/5--3/5\3/5-\3--|
|1/3-3\1/3---1/3\1/3-------------------------------|

Play 3 times
 D               D               G               F
|----------------------------------------------------------------|
|----------------------------------------------------------------|
|----------------------------------------------------------------|
|7-X-X-X-X-X-X-X-7-X-X-X-X-X-X-X---------------------------------|
|5-X-X-X-X-X-X-X-5-X-X-X-X-X-X-X-5-X-X-X-X-X-X-X-3-X-X-X-X-X-X-X-|
|--------------------------------3-X-X-X-X-X-X-X-1-X-X-X-X-X-X-X-|
|                                                                |
|                                                                |
|----------------------------------------------------------------|
|----------------------------------------------------------------|
|----------------------------------------------------------------|
|-----3~-3~-----------3~-3~--------5*-5)H--5~----------3~--------|
|3h4h5------5~---3h4h5------5~---3---------------0h3h5-----------|
|----------------------------------------------------------------|

Play 2 times
 D               D               G
|------------------------------------|
|------------------------------------|
|------------------------------------|
|7-X-X-X-X-X-X-X-7-X-X-X-X-X-X-X-----|
|5-X-X-X-X-X-X-X-5-X-X-X-X-X-X-X-5*--|
|--------------------------------3*--|
|                                    |
|                                    |
|------------------------------------|
|------------------------------------|
|------------------------------------|
|-----3~-3~-----------3~-3~----------|
|3h4h5------5~---3h4h5------5~---5*--|
|--------------------------------3*--|


*SOLO*------>solo riff not included yet.  Will tab asap.

Play 2 times
 F                        F
|--------------------------------------------------|
|--------------------------------------------------|
|--------------------------------------------------|
|--------------------------------------------------|
|3/5-5\3/5---3/5\3/5-\3---3/5-5\3/5---3/5\3/5-\3---|
|1/3-3\1/3---1/3\1/3-\1---1/3-3\1/3---1/3\1/3-\1---|

 C                        C
|--------------------------------------------------|
|--------------------------------------------------|
|--------------------------------------------------|
|3/5-5\3/5---3/5\3/5-\3---3/5-5\3/5---3/5\3/5-\3---|
|1/3-3\1/3---1/3\1/3-\1---1/3-3\1/3---1/3\1/3-\1---|
|--------------------------------------------------|

 F                        F
|--------------------------------------------------|
|--------------------------------------------------|
|--------------------------------------------------|
|--------------------------------------------------|
|3/5-5\3/5---3/5\3/5-\3---3/5-5\3/5---3/5\3/5-\3---|
|1/3-3\1/3---1/3\1/3-\1---1/3-3\1/3---1/3\1/3-\1---|


|--------------------------------------------------|
|------------------------------------------5-------|
|------------------------------------------4--5----|
|2-----------------------------------------3--5----|
|2-X-X-X-X-X-X-X-X-X-X-X-X-X-X-X-3-4-5-----3--3----|
|0-X-X-X-X-X-X-X-X-X-X-X-X-X-X-X-1-2-3-------------|

 A                        D
|--------------------------------------------------|
|--------------------------------------------------|
|--------------------------------------------------|
|5-2-2---2---2---2----2---5-/7--5-/7---5/7\5/7-\5--|
|3-0-0-3-0---0-3-0-3~-0---3-/5--3-/5---3/5\3/5-\3--|
|--------------------------------------------------|

 G                        D
|--------------------------------------------------|
|---------------------5---5------------------------|
|---------------------4---4------------------------|
|---------------------3---3--7-7-\5/7--5/7\5/7-\5--|
|3/5-5\3/5---3/5\3/5--3---3--5-5-\3/5--3/5\3/5-\3--|
|1/3-3\1/3---1/3\1/3-------------------------------|

Play # times
 D               D               G               F
|----------------------------------------------------------------|
|----------------------------------------------------------------|
|----------------------------------------------------------------|
|7-X-X-X-X-X-X-X-7-X-X-X-X-X-X-X---------------------------------|
|5-X-X-X-X-X-X-X-5-X-X-X-X-X-X-X-5-X-X-X-X-X-X-X-3-X-X-X-X-X-X-X-|
|--------------------------------3-X-X-X-X-X-X-X-1-X-X-X-X-X-X-X-|
|                                                                |
|                                                                |
|----------------------------------------------------------------|
|----------------------------------------------------------------|
|----------------------------------------------------------------|
|-----3~-3~-----------3~-3~--------5*-5)H--5~----------3~--------|
|3h4h5------5~---3h4h5------5~---3---------------0h3h5-----------|
|----------------------------------------------------------------|

 D               D               G               F
|----------------------------------------------------------------|
|----------------------------------------------------------------|
|----------------------------------------------------------------|
|7-X-X-X-X-X-X-X-7-X-X-X-X-X-X-X---------------------------------|
|5-X-X-X-X-X-X-X-5-X-X-X-X-X-X-X-5*--------------3*--------------|
|--------------------------------3*--------------1*--------------|
|                                                                |
|                                                                |
|----------------------------------------------------------------|
|----------------------------------------------------------------|
|----------------------------------------------------------------|
|-----3~-3~-----------3~-3~--------------------------------------|
|3h4h5------5~---3h4h5------5~-----------------------------------|
|----------------------------------------------------------------|
Добавлено: 17.09.2015
Другие материалы по этой песне:

Страница создана 28.03.2012
http://primanota.ru/cult/outlaw-chords.htm
Привет, Гость.
Предлагаем пройти революционный курс по гитаре.
Подарок от PrimaNota.Ru, забирай!