PrimaNota.ru - самый крупный в мире бесплатный архив песенных текстов, аккордов, табулатур и нот


Cult - Love Trooper - текст песни, таба, видео

Регистрация Запомнить меня
Войти через:  Facebook Google Twitter Vk Yandex Mail.ru

Cult - Love Trooper - текст песни, таба, видео

Печатать
Просмотров: 116
Авторы музыки: Billy Duffy
Авторы текста: Ian Astbury
"Love Trooper" (demo)

From the Box Set "Rare Cult"
Released 2000
As Performed by The Cult
Written by Ian Astbury and Billy Duffy


Legend:  / - slide up
         \ - slide down
         X - strings muted with "pick" hand
         ~ - vibrato
         * - do not let string ring
         ) - bend ---> if a Q appears to the right of this, indicates a 1/4 bend.
                       Hence, 4)Q means a string om the 4th fret is 
                       bending by 1/4; 4)H means a string on the 4th fret is bending
                       by 1/2; 9)F means a Full bend on a string on the 9th fret.
         ( - bring back -->bring the string back to original tone. For example,
                           if you see 4)H( this means bend the string on the 4th fret 
                           by 1/2 then bring the string back to original tone.
         W - use of a wammy bar
         h - hammer the string
         p - pull the string



 E               D               C               C        D
|-----------------------------------------------------------------|
|-----------------------------------------------------------------|
|-----------------------------------------------------------------|
|9-X-X-X-X-X-X---7-X-X-X-X-X-X---5-X-X-X-X-X-X-X-X-X-5-/--7-X-7-7-|
|7-X-X-X-X-X-X-0-5-X-X-X-X-X-X-0-3-X-X-X-X-X-X-X-X-X-3-/--5-X-5-5-|
|-----------------------------------------------------------------|

 E               D               C               C        D
|-----------------------------------------------------------------|
|-----------------------------------------------------------------|
|-------------------------------------------------------------0---|
|9-X-X-X-X-X-X-9\7-X-X-X-X-X-X-7\5-X-X-X-X-X-X-X-X-X--------7-----|
|7-X-X-X-X-X-X-7\5-X-X-X-X-X-X-5\3-X-X-X-X-X-X-X-X-X-3----5-------|
|-----------------------------------------------------------------|

 E               D               C               C        D
|-----------------------------------------------------------------|
|-----------------------------------------------------------------|
|---9--------0--------0------0--------0--------------0--------0---|
|9--9------9--------5------7--------5--------------5--------7-----|
|7--7----7-------5-------5-------3---------------3--------5-------|
|-----------------------------------------------------------------|

 E               D               C               C        D
|-----------------------------------------------------------------|
|-----------------------------------------------------------------|
|----0----------------0------0--------0--------------0---------0--|
|--9----------------7------7--------5--------------5------7-/9----|
|7---------------5-------5-------3---------------3----------------|
|-----------------------------------------------------------------|

 E               D               C               C        D
|-----------------------------------------------------------------|
|-----------------------------------------------------------------|
|-----------------------------------------------------------------|
|9-X-X-X-X-X-X-9\7-X-X-X-X-X-X-7\5-X-X-X-X-X-X-X-5-X---5--7-X---7-|
|7-X-X-X-X-X-X-7\5-X-X-X-X-X-X-5\3-X-X-X-X-X-X-X-3-X-3----5-X-5---|
|-----------------------------------------------------------------|
"Hey little love trooper...

 E               D               C               C        D
|-----------------------------------------------------------------|
|-----------------------------------------------------------------|
|-----------------------------------------------------------------|
|9-X-X-X-X-X-X-9\7-X-X-X-X-X-X-7\5-X-X-X-X-X-X-X-5-X---5--7----7-/|
|7-X-X-X-X-X-X-7\5-X-X-X-X-X-X-5\3-X-X-X-X-X-X-X-3-X-3----5--5---/|
|-----------------------------------------------------------------|

 E               D               C               C        D
|-----------------------------------------------------------------|
|------------------------------------------------------5-/7---7---|
|9-----------------------------------------------------5-/7---7---|
|9-X-X-X-X-X-X-9\7-X-X-X-X-X-X-7\5-X-X-X-X-X-X-X-5-X-X-5-/7---7---|
|7-X-X-X-X-X-X-7\5-X-X-X-X-X-X-5\3-X-X-X-X-X-X-X-3-X-X-3-/5---5---|
|-----------------------------------------------------------------|

 E               D               C               C        D
|-----------------------------------------------------------------|
|9---------------7---------------5---------------5----------------|
|9---------------7---------------5---------------5-------------0--|
|9-X-X-X-X-X-X-9\7-X-X-X-X-X-X-7\5-X-X-X-X-X-X-X-5-X-X-5--7-/9----|
|7-X-X-X-X-X-X-7\5-X-X-X-X-X-X-5\3-X-X-X-X-X-X-X-3-X-X-3----------|
|-----------------------------------------------------------------|

 E               D               C               C        
|-----------------------------------------------------------------|
|9-------------9\7-------------7\5---------------5----------------|
|9-------------9\7-------------7\5---------------5----------------|
|9-X-X-X-X-X-X-9\7-X-X-X-X-X-X-7\5-X-X-X-X-X-X-X-5-X-X-5-5--5-5--5|
|7-X-X-X-X-X-X-7\5-X-X-X-X-X-X-5\3-X-X-X-X-X-X-X-3-X-X-3-3--3-3--3|
|-----------------------------------------------------------------|

 C               D               E       D       C        
|-----------------------------------------------------------------|
|-----------------------------------------------------------------|
|------0-------------0-------0---9---9--\7--7---\5-------------0--|
|---5--------------7-------7-----9---9--\7--7---\5---5------5-----|
|3---------------5-------5-------7---7--\5--5---\3---3---3--------|
|-----------------------------------------------------------------|

 C               D               E       D       C        
|-----------------------------------------------------------------|
|-----------------------------------------------------------------|
|------0-------------0-------0------------------------0---------0-|
|---5--------------7-------7-----9---9--\7--7-------5-----7--/9---|
|3---------------5-------5-------7---7--\5--5---\3----------------|
|-----------------------------------------------------------------|

 C               D               E       D       C        
|-----------------------------------------------------------------|
|-----------------------------------------------------------------|
|------0-------------0-------0----------------------------------0-|
|---5--------------7-------7-----9---9--\7--7----5--5-5---7--/9---|
|7\-3------------5-------5-------7---7--\5--5---\3--3-3-----------|
|-----------------------------------------------------------------|

 C               D               E       D       C        
|-----------------------------------------------------------------|
|-----------------------------------------------------------------|
|------0-------------0-------0------------------------------------|
|---5--------------7-------7-----9---9--\7--7----5----------------|
|3---------------5-------5-------7---7--\5--5---\3----------------|
|-----------------------------------------------------------------|

 E               D               C               C        D
|-----------------------------------------------------------------|
|-----------------------------------------------------------------|
|---------------------0---------------0--------------0---------0--|
|9---X-X-X-X-X-X----7---------------5--------------5------7-/9----|
|7---X-X-X-X-X-X-5-----------5\3-3---------------3----------------|
|-----------------------------------------------------------------|

 E               D               C               C        D
|-----------------------------------------------------------------|
|-----------------------------------------------------------------|
|----0W---------------0W--------------0W-------------0---------0--|
|--9----------------7---------------5--------------5------7-/9----|
|7---------------5---------------3---------------3----------------|
|-----------------------------------------------------------------|

 E               D               C               C        D
|-----------------------------------------------------------------|
|------------------------------------------------------5-/7---7--/|
|9-----------------------------------------------------5-/7---7--/|
|9-X-X-X-X-X-X-9\7-X-X-X-X-X-X-7\5-X-X-X-X-X-X-X-5-X-X-5-/7---7--/|
|7-X-X-X-X-X-X-7\5-X-X-X-X-X-X-5\3-X-X-X-X-X-X-X-3-X-X-3-/5---5--/|
|-----------------------------------------------------------------|

 E               D               C               C        D
|-----------------------------------------------------------------|
|9----------------------------------------------------------------|
|9------------------------------------------------------------0---|
|9-X-X-X-X-X-X---7-X-X-X-X-X-X---5-X-X-X-X-X-X-X-5--5-5-----7-----|
|7-X-X-X-X-X-X-0-5-X-X-X-X-X-X-0-3-X-X-X-X-X-X-X-3--3-3--/5-------|
|-----------------------------------------------------------------|

 E               D               C               C        D
|-----------------------------------------------------------------|
|-----------------------------------------------------------------|
|----0----------------0---------------0--------------0---------0--|
|--9----------------7---------------5--------------5------7-/9----|
|7---------------5---------------3---------------3----------------|
|-----------------------------------------------------------------|

 E               D               C               C        D
|-----------------------------------------------------------------|
|-----------------------------------------------------------------|
|----0W---------------0W--------------0W-------------0---------0--|
|--9----------------7---------------5--------------5------7-/9----|
|7---------------5---------------3---------------3----------------|
|-----------------------------------------------------------------|

 C               D               E       D       C        
|-----------------------------------------------------------------|
|-----------------------------------------------------------------|
|-------------0------0-----------------------------------------0--|
|5--5------5-------7-------------9---9--\7--7---\5---5------------|
|3--3------------5---------------7---7--\5--5---\3---3------------|
|-----------------------------------------------------------------|

 C               D               E       D       C        
|-----------------------------------------------------------------|
|-----------------------------------------------------------------|
|------0-------------0-------0---------------------------------0--|
|5--5--------------7-------7-----9---9--\7--7---\5---5----7-/9----|
|3---------------5-------5-------7---7--\5--5---\3---3------------|
|-----------------------------------------------------------------|

 C               D               E       D       C        
|-----------------------------------------------------------------|
|-----------------------------------------------------------------|
|------0-------------0-------0---------------------------------0--|
|5--5--------------7-------7-----9---9--\7--7---\5---5----7-/9----|
|3---------------5-------5-------7---7--\5--5---\3---3------------|
|-----------------------------------------------------------------|

 C               D               E       D       C        
|-----------------------------------------------------------------|
|-----------------------------------------------------------------|
|------0-------------0--------------------------------------------|
|---5--------------7-------------9---9--\7--7---\5-5-5-5-5-5-5-5-/|
|3---------------5---------------7---7--\5--5---\3-3-3-3-3-3-3-3-/|
|-----------------------------------------------------------------|

 E       D       C        
|---------------------------------|
|---------------------------------|
|---------------------------------|
|9---9--\7--7---\5-5-5-5-5-5-5-5/7|
|7---7--\5--5---\3-3-3-3-3-3-3-3/5|
|---------------------------------|

 E       D       C        
|---------------------------------|
|---------------------------------|
|---------------------------------|
|9---9--\7--7---\5-5-5-5-5-5-5-5-/|
|7---7--\5--5---\3-3-3-3-3-3-3-3-/|
|---------------------------------|

 E       D       C        
|---------------------------------|
|---------------------------------|
|---------------------------------|
|9---9--\7--7---\5-5-5-5-5-5-5-5--|
|7---7--\5--5---\3-3-3-3-3-3-3-3--|
|---------------------------------|

 E               D               C               C        D
|-----------------------------------------------------------------|
|9-----10-10-9--\7-7----8--8-7--\5-5----6--6-5---5-6-5---/7-8-7---|
|9-----9--9--9--\7-7----7--7-7--\5-5----5--5-5---5-5-5---/7-7-7---|
|9-----9--9--9--\7-7----7--7-7--\5-5----5--5-5---5-5-5---/7-7-7---|
|7-----7--7--7--\5-5----5--5-5--\3-3----3--3-3---3-3-3---/5-5-5---|
|-----------------------------------------------------------------|

 E               D               C               C        D
|-----------------------------------------------------------------|
|9-----10-10-9--\7-7----8--7-7--\5-5----6--6-5---5-6-5---/7-8-7---|
|9-----9--9--9--\7-7----7--7-7--\5-5----5--5-5---5-5-5---/7-7-7---|
|9-----9--9--9--\7-7----7--7-7--\5-5----5--5-5---5-5-5---/7-7-7---|
|7-----7--7--7--\5-5----5--5-5--\3-3----3--3-3---3-3-3---/5-5-5---|
|-----------------------------------------------------------------|

 E               D               C               C        D
|-----------------------------------------------------------------|
|9-10-10-9-10-9-\7-8----7--8-7--\5-5----6--6-5---5-6-5---/7-8-7---|
|9-9--9--9-9--9-\7-7----7--7-7--\5-5----5--5-5---5-5-5---/7-7-7---|
|9-9--9--9-9--9-\7-7----7--7-7--\5-5----5--5-5---5-5-5---/7-7-7---|
|7-7--7--7-7--7-\5-5----5--5-5--\3-3----3--3-3---3-3-3---/5-5-5---|
|-----------------------------------------------------------------|

 E               D               C               C        D
|-----------------------------------------------------------------|
|9-----10-10-9--\7-7----8--8-7--\5-5--6--5-6-5---5-6-5---/7-7-7---|
|9-----9--9--9--\7-7----7--7-7--\5-5--5--5-5-5---5-5-5---/7-7-7---|
|9-----9--9--9--\7-7----7--7-7--\5-5--5--5-5-5---5-5-5---/7-7-7---|
|7-----7--7--7--\5-5----5--5-5--\3-3--3--3-3-3---3-3-3---/5-5-5---|
|-----------------------------------------------------------------|

Play 3 times
 E               D               C               C        D
|-----------------------------------------------------------------|
|9-----10-10-9--\7-7----8--8-7--\5-5----6--6-5---5-6-5---/7-8-7---|
|9-----9--9--9--\7-7----7--7-7--\5-5----5--5-5---5-5-5---/7-7-7---|
|9-----9--9--9--\7-7----7--7-7--\5-5----5--5-5---5-5-5---/7-7-7---|
|7-----7--7--7--\5-5----5--5-5--\3-3----3--3-3---3-3-3---/5-5-5---|
|-----------------------------------------------------------------|
"Hey little love trooper..."

 E               D               C               C        D
|------------------------------------------------------------------|
|9-----10-10-9--\7-7----8--8-7--\5-5----6--6-5---5-6-5---/7-8-7-/--|
|9-----9--9--9--\7-7----7--7-7--\5-5----5--5-5---5-5-5---/7-7-7-/9-|
|9-----9--9--9--\7-7----7--7-7--\5-5----5--5-5---5-5-5---/7-7-7-/9-|
|7-----7--7--7--\5-5----5--5-5--\3-3----3--3-3---3-3-3---/5-5-5-/7-|
|------------------------------------------------------------------|
Добавлено: 17.09.2015
Другие материалы по этой песне:
  • Аккорды и текст

Страница создана 18.04.2012
http://primanota.ru/cult/love-trooper-chords.htm
Привет, Гость.
Предлагаем пройти революционный курс по гитаре.
Подарок от PrimaNota.Ru, забирай!