PrimaNota.ru - самый крупный в мире бесплатный архив песенных текстов, аккордов, табулатур и нот


Cult - Libertine - таба, видео

Регистрация Запомнить меня
Войти через:  Facebook Google Twitter Vk Yandex Mail.ru

Cult - Libertine - таба, видео

Печатать
Просмотров: 121


"Libertine"

From the Album "Beyond Good And Evil" (Australian and Japanese Imports and "Rise" CD Single)
Released 2001
As Performed By The Cult
Written by Ian Astbury and Billy Duffy

Guitar is tuned Normally
        e
        B
        G      *ALSO SEE NOTE BELOW
        D
        A
        E

Legend:  / - slide up
         \ - slide down
         X - strings muted with "pick" hand
         ~ - vibrato
         * - do not let string ring
         ) - bend ---> if a Q appears to the right of this, indicates a 1/4 bend.
                       Hence, 4)Q means a string om the 4th fret is 
                       bending by 1/4; 4)H means a string on the 4th fret is bending
                       by 1/2; 9)F means a Full bend on a string on the 9th fret.
         ( - bring back -->bring the string back to original tone. For example,
                           if you see 4)H( this meansbend the string on the 4th fret by 1/2
                           then bring the string back to original tone.
         h - hammer the string
         p - pull the string

Play 2 times
|----------------------------------------------|
|----------------------------------------------|
|------0--------------0--------0-------------0-|
|---4-----4-----4-----------4-----4----4-------|
|3-----------5-----0-----3-----------5----0----|
|----------------------------------------------|

Play 2 times w/ heavy distortion
 D
|--------------------------------------------|
|3---3---3--3---3---3--3---3---3--3---3---3--|
|2---2---2--2---2---2--2---2---2--2---2---2--|
|0---0---0--0---0---0--0---0---0--0---0---0--|
|0---0---0--0---0---0--0---0---0--0---0---0--|
|--------------------------------------------|

Play 4 times
 D          D          C          C
|--------------------------------------------|
|3---3---3--3---3---3------------------------|
|2---2---2--2---2---2--5---5---5--5---5---5--|
|0---0---0--0---0---0--5---5---5--5---5---5--|
|0---0---0--0---0---0--3---3---3--3---3---3--|
|----------------------3---3---3--3---3---3--|

 C
|------------|
|------------|
|5-----------|
|5-----------|
|3-----------|
|3-----------|
   (let ring)


|-------------------------------------------------------------|
|-------------------------------------------------------------|
|--------5/7\5/7-\5---------5/7--7-----------5/7\5/7-\5-------|
|3---5---5/7\5/7-\5-3---5---5/7--7---3---5---5/7\5/7-\5-3---5-|
|3---5---3/5\3/5-\3-3---5---3/5--5---3---5---3/5\3/5-\3-3---5-|
|1---3--------------1---3------------1---3--------------1---3-|
"Libertine"

Play 2 times
 D           D           C           C
|------------------------------------------------|
|3--3--3-3-3-3--3--3-3-3-6--6--6-6-6-------------|
|2--2--0-2-0-2--2--0-2-0-5--5--5-5-5-5--5--5-5-5-|
|0--0--0-0-0-0--0--0-0-0-3--3--3-3-3-5--5--5-5-5-|
|0--0--0-0-0-0--0--0-0-0-3--3--3-3-3-3--3--3-3-3-|
|------------------------------------3--3--3-3-3-|
|                                                |
|                                                |
|------------------------------------------------|
|------------------------------------------------|
|/4-2~--4-/5-/7\5-4\2p0--/4--2~------4)H(4p0-----|
|------------------------------------------------|
|------------------------------------------------|
|------------------------------------------------|


 D          D          C          C
|--------------------------------------------|
|3---3---3--3---3---3------------------------|
|2---2---2--2---2---2--5---5---5--5---5---5--|
|0---0---0--0---0---0--5---5---5--5---5---5--|
|0---0---0--0---0---0--3---3---3--3---3---3--|
|----------------------3---3---3--3---3---3--|

 D          D          C          C
|--------------------------------------------|
|3---3---3--3---3---3------------------------|
|2---2---2--2---2---2--5---5---5--5---5---5--|
|0---0---0--0---0---0--5---5---5--5---5---5--|
|0---0---0--0---0---0--3---3---3--3---3---3--|
|----------------------3---3---3--3---3---3--|
|                                            |
|                                            |
|-------0---------------------------------0--|
|h1--3-----3--------------------5)H(5-1-3---3|
|--------------------------------------------|
|--------------------------------------------|
|--------------------------------------------|
|--------------------------------------------|

 D          D          C          C
|--------------------------------------------|
|3---3---3--3---3---3------------------------|
|2---2---2--2---2---2--5---5---5--5---5---5--|
|0---0---0--0---0---0--5---5---5--5---5---5--|
|0---0---0--0---0---0--3---3---3--3---3---3--|
|----------------------3---3---3--3---3---3--|
|                                            |
|                                            |
|--------------------------------------------|
|-------/6--3---3--3--3----/6-3--------------|
|-------------5---------2-------5-2----------|
|-----------------------------------5--4-----|
|--------------------------------------------|
|--------------------------------------------|

 D          D          C          C
|--------------------------------------------|
|3---3---3--3---3---3------------------------|
|2---2---2--2---2---2--5---5---5--5---5---5--|
|0---0---0--0---0---0--5---5---5--5---5---5--|
|0---0---0--0---0---0--3---3---3--3---3---3--|
|----------------------3---3---3--3---3---3--|
|                                            |
|                                            |
|--------------------------------------------|
|-------/6--3---3-/10-8~----------6\3-3--1--1|
|-------------5-------------5p3h5------------|
|--------------------------------------------|
|--------------------------------------------|
|--------------------------------------------|

 C
|------------|
|------------|
|5-----------|
|5-----------|
|3-----------|
|3-----------|
   (let ring)



|---------------------------------------------------------------------|
|---------------------------------------------------------------------|
|--------5/7\5/7-\5---------5/7--7-----------5/7\5/7-\5---------5/7--7|
|3---5---5/7\5/7-\5-3---5---5/7--7---3---5---5/7\5/7-\5-3---5---5/7--7|
|3---5---3/5\3/5-\3-3---5---3/5--5---3---5---3/5\3/5-\3-3---5---3/5--5|
|1---3--------------1---3------------1---3--------------1---3---------|
"Libertine"

|-------------------------------------------------------------|
|-------------------------------------------------------------|
|--------5/7\5/7-\5---------5/7--7-----------5/7\5/7-\5-------|
|3---5---5/7\5/7-\5-3---5---5/7--7---3---5---5/7\5/7-\5-3---5-|
|3---5---3/5\3/5-\3-3---5---3/5--5---3---5---3/5\3/5-\3-3---5-|
|1---3--------------1---3------------1---3--------------1---3-|
"Libertine"

Play 2 times
 D           D           C           C
|------------------------------------------------|
|3--3--3-3-3-3--3--3-3-3-6--6--6-6-6-------------|
|2--2--0-2-0-2--2--0-2-0-5--5--5-5-5-5--5--5-5-5-|
|0--0--0-0-0-0--0--0-0-0-3--3--3-3-3-5--5--5-5-5-|
|0--0--0-0-0-0--0--0-0-0-3--3--3-3-3-3--3--3-3-3-|
|------------------------------------3--3--3-3-3-|
|                                                |
|                                                |
|------------------------------------------------|
|------------------------------------------------|
|/4-2~--4-/5-/7\5-4\2p0--/4--2~------4)H(4p0-----|
|------------------------------------------------|
|------------------------------------------------|
|------------------------------------------------|

|----------------------------------------------|
|----------------------------------------------|
|------0--------------0--------0-------------0-|
|---4-----4-----4-----------4-----4----4-------|
|3-----------5-----0-----3-----------5----0----|
|----------------------------------------------|
|                                              \
|                                               \
|10-10-10-8-8-8-7-7-7-5-5-5------------------------|
|---------------------------8-8-8-7-7-7-5-5-5------|
|---------------------------------------------5-5-5|
|--------------------------------------------------|
|--------------------------------------------------|
|--------------------------------------------------|

|----------------------------------------------|
|----------------------------------------------|
|------0--------------0--------0-------------0-|
|---4-----4-----4-----------4-----4----4-------|
|3-----------5-----0-----3-----------5----0----|
|----------------------------------------------|
|                                              |
|                                              |
|------10-10-10-8-8-8-7-7/8-/10~---------------|
|-----------------------------------8-8-8-7-7-7|
|----------------------------------------------|
|----------------------------------------------|
|----------------------------------------------|
|----------------------------------------------|

|----------------------------------------------|
|----------------------------------------------|
|------0--------------0--------0-------------0-|
|---4-----4-----4-----------4-----4----4-------|
|3-----------5-----0-----3-----------5----0----|
|----------------------------------------------|
|                                              |
|                                              |
|----------------------------------------------|
|5-5-5----------8-8-8-7-7-7-5-5-5--------------|
|------5-5~-----------------------5-5~---------|
|----------------------------------------------|
|----------------------------------------------|
|----------------------------------------------|

|---------------------------------------------------------------------|
|---------------------------------------------------------------------|
|--------5/7\5/7-\5---------5/7--7-----------5/7\5/7-\5---------5/7--7|
|3---5---5/7\5/7-\5-3---5---5/7--7---3---5---5/7\5/7-\5-3---5---5/7--7|
|3---5---3/5\3/5-\3-3---5---3/5--5---3---5---3/5\3/5-\3-3---5---3/5--5|
|1---3--------------1---3------------1---3--------------1---3---------|
"Libertine"

|-------------------------------------------------------------|
|-------------------------------------------------------------|
|--------5/7\5/7-\5---------5/7--7-----------5/7\5/7-\5-------|
|3---5---5/7\5/7-\5-3---5---5/7--7---3---5---5/7\5/7-\5-3---5-|
|3---5---3/5\3/5-\3-3---5---3/5--5---3---5---3/5\3/5-\3-3---5-|
|1---3--------------1---3------------1---3--------------1---3-|
"Libertine"

Play until song fades out(also some background guitar playing)
 D           D           C           C
|------------------------------------------------|
|3--3--3-3-3-3--3--3-3-3-6--6--6-6-6-------------|
|2--2--0-2-0-2--2--0-2-0-5--5--5-5-5-5--5--5-5-5-|
|0--0--0-0-0-0--0--0-0-0-3--3--3-3-3-5--5--5-5-5-|
|0--0--0-0-0-0--0--0-0-0-3--3--3-3-3-3--3--3-3-3-|
|------------------------------------3--3--3-3-3-|
|                                                |
|                                                |
|------------------------------------------------|
|------------------------------------------------|
|/4-2~--4-/5-/7\5-4\2p0--/4--2~------4)H(4p0-----|
|------------------------------------------------|
|------------------------------------------------|
|------------------------------------------------|

*NOTE:
        The guitar can also be tuned differently, but only for the rhythm guitar.
        Get your tuning hands ready.  First, tune down to D-tuning.  Then tune your
        guitar ONE FULL STEP DOWN!!!  The only thing is you would have to play the starting
        riff a little differently.  Any other information would be appreciated.
Добавлено: 17.09.2015
Вам также может быть интересно:
Другие материалы по этой песне:
  • Аккорды и текст

Страница создана 17.09.2015
http://primanota.ru/cult/libertine-chords.htm
Привет, Гость.
Предлагаем пройти революционный курс по гитаре.
Подарок от PrimaNota.Ru, забирай!