PrimaNota.ru - самый крупный в мире бесплатный архив песенных текстов, аккордов, табулатур и нот


Cult - Heart Of Soul - текст песни, таба, видео

Регистрация Запомнить меня
Войти через:  Facebook Google Twitter Vk Yandex Mail.ru

Cult - Heart Of Soul - текст песни, таба, видео

Печатать
Просмотров: 129
Well this is a Cult tab in a world that lacks them. Come on guys giv sumthin back eh? 
way I didn't include all the lead parts or solo but its pretty dam good. Please rate

->half step down tuning

intro/verse guitar 1(an acoustic 12-string)
eb|-3-3-3-3-3-3-0-0-0-0-0-0-3-3-3-3-3-3------------------------|
Bb|-3-3-3-3-3-3-1-1-1-1-1-1-3-3-3-3-3-3------------1-1-1-1/3-3-|
Gb|-0-0-0-0-0-0-0-0-0-0-0-0-0-0-0-0-0-0-4p2p0------0-0-0-0-0-0-|
Db|-0-0-0-0-0-0-2-2-2-2-2-2-0-0-0-0-0-0------4h2h0-2-2-2-2/4-4-|
Ab|-2-2-2-2-2-2-3-3-3-3-3-3-2-2-2-2-2-2------------3-3-3-3/5-5-|
Eb|-3-3-3-3-3-3-------------3-3-3-3-3-3------------------------|

Intro guitar 2(lead tone 6-string electric)
eb|--------------------------------------------------|
Bb|-12h13p12---------------12h13p12------------------|
Gb|----------12--------10----------12----------------|
Db|------------12/10-9---------------12/10-9/7b(1)/5-|
Ab|--------------------------------------------------|
Eb|--------------------------------------------------|

Verse guitar 2
eb|---------------------|
Bb|---------------------|
Gb|-0h2tr~~~-/7/5/4/5/7-|
Db|---------------------|
Ab|---------------------|
Eb|---------------------|

Pre-Chorus guitar 1
eb|-2-2-2-2-2-2-0-0-0-0-0-0-|
Bb|-3-3-3-3-3-3-1-1-1-1-1-1-|
Gb|-2-2-2-2-2-2-0-0-0-0-0-0-|
Db|-0-0-0-0-0-0-2-2-2-2-2-2-|
Ab|-------------3-3-3-3-3-3-|
Eb|-------------------------|

Pre-Chorus guitar 2
eb|-15-14---------15-14-15-15-15-14----------15-14---------|
Bb|----------13---------------------15----------------13//-|
Gb|-------14---------------------------14----------14------|
Db|--------------------------------------------------------|
Ab|--------------------------------------------------------|
Eb|--------------------------------------------------------|

Chorus guitar.3
eb|-------------------------------------------------|
Bb|-------------------------------------------------|
Gb|---------------------------------5-5-5-5-5-5-5-5-|
Db|-5-5-5-5-5-5-5-5-3-3-3-3-3-3-3-3-5-5-5-5-5-5-5-5-|
Ab|-5-5-5-5-5-5-5-5-3-3-3-3-3-3-3-3-3-3-3-3-3-3-3-3-|
Eb|-3-3-3-3-3-3-3-3-1-1-1-1-1-1-1-1-----------------|

Chorus guitar 2
eb|---3--|
Bb|--3-3-|
Gb|-0----|
Db|------|
Ab|------|
Eb|------|

Intro 2 gtr.2
eb|------------------------------------------------------------------|
Bb|-12h13p12-------------12h13h15-13-12h13p12------------------------|
Gb|---------12--------12---------------------12----------------------|
Db|-----------12/10-9--------------------------12-9-10-9-7-9-7-5-4-5-|
Ab|------------------------------------------------------------------|
Eb|------------------------------------------------------------------|

Solo gtr.3
eb|-----------------------------|
Bb|---------------------3-3-3-3-|
Gb|-------------2-2-2-2-3-3-3-3-|
Db|-------------3-3-3-3-3-3-3-3-|
Ab|-------1-1---3-3-3-3-1-1-1-1-|
Eb|-1h3-3-----3-1-1-1-1---------|
Добавлено: 21.02.2012
Другие материалы по этой песне:
  • Аккорды и текст

Страница создана 21.02.2012
http://primanota.ru/cult/heart-of-soul-chords.htm
Привет, Гость.
Предлагаем пройти революционный курс по гитаре.
Подарок от PrimaNota.Ru, забирай!