PrimaNota.ru - самый крупный в мире бесплатный архив песенных текстов, аккордов, табулатур и нот


Cult - Dreamtime - текст песни, бас-таба, видео

Регистрация Запомнить меня
Войти через:  Facebook Google Twitter Vk Yandex Mail.ru

Cult - Dreamtime - текст песни, бас-таба, видео

Печатать
Просмотров: 143
Уроки эстрадного вокала в Санкт-Петербурге
DREAMTIME
The Cult

Taken from the Beggars Banquet album Dreamtime (1984)

Transcribed by: Damian Pamminger (Twitched_85@hotmail.com)

Standard tuning: E A D G

Fig. 1a (1x)
| --------------------------------|
|-------3-3---0-0---0-0h-2--------|
|-0-0-----------------------0-----|
|---------------------------------|

Fig. 2 (1x)
|-----------------------------------|---------- |---------------------------|
|-0-0-0-0-0-0-0-0------------------|--REPEAT-- |-1-1-1-1-1-1-1-1-0-0-0-0----|
|------------------0-0-0-0-0-0-0-0-|-two-more- |----------------------------|
|-----------------------------------|---times---|---------------------------|

|-------------|
|-0-0-0h-2----|
|-------------|
|-------------|

Fig. 3a (2x)
| -----------------------------------------------------------------------|
|------------------3-3-3-3-3-3-3-3-0-0-0-0-0-0-0h-2----------------------|
|-0-0-0-0-0-0-0-0------------------------------------0-0-0-0-0-0-0-0-----|
| -----------------------------------------------------------------------|

Fig. 2 (1x)
Fig. 3a (1x)

Fig. 3b (1x)
| -------------------------------------------------------------------------|
|------------------3-3-3-3-3-3-3-3-0-0-0-0-0-0-0h-2--------------0h-2------|
|-0-0-0-0-0-0-0-0------------------------------------0-0-0-0-0-0-----------|
| -------------------------------------------------------------------------|

Fig. 1b (1x)
| ---------------------------------------------------------------------------|
|-------3-3---0-0---0-0h-2-------------5-5---3-3---0-0h-2-------------3-3----|
|-0-0-----------------------0----0-0-----------------------0----0-0----------|
|----------------------------------------------------------------------------|

|------------------------------------------------------------|
| -0-0---0-0h-2-------------------3-3---0-0---0-0h-2---------|
|----------------0----0-0---3-3-----------------------0------|
| -----------------------------------------------------------|

Pause

Fig. 4
|------------------|---------- |-------------------|
|-5-7-7-5-7-7-7-7-|--REPEAT-- |-5-7-7-5-7--\-------|
| -----------------|-four-more-|-------------------|
| -----------------|---times---|-------------------|

Pause
Fig. 1a (1x)
Pause
Fig. 1a (1x)
Fig. 2 (1x)
Fig. 3a (2x)
Fig. 2 (1x)
Fig. 1b (3x) (Let last A note ring)
Добавлено: 11.06.2012
Другие материалы по этой песне:
  • Аккорды и текст

Страница создана 28.02.2012
http://primanota.ru/cult/dreamtime-chords.htm
Привет, Гость.
Предлагаем пройти революционный курс по гитаре.
Подарок от PrimaNota.Ru, забирай!