PrimaNota.ru - самый крупный в мире бесплатный архив песенных текстов, аккордов, табулатур и нот


Cult Of Luna - White Cell - текст песни, бас-таба, видео

Регистрация Запомнить меня
Войти через:  Facebook Google Twitter Vk Yandex Mail.ru

Cult Of Luna - White Cell - текст песни, бас-таба, видео

Печатать
Просмотров: 176
Cult Of Luna - White Cell
Tuning: B E A D

Riff 1 (0:00)
D |-----------------------------------------|
A |-----------------------------------------|
E |-----------------------------------8888--|
B |--777-88~-88-77-33-0-333-55~-0-3-0-------|

Riff 2 (0:51)
D |----------------------------------------------------------------------------|
A |----------------------------------------------------------------------------|
E |--33333333-22222222-------------------33333333-55555555-44444444------------|
B |--------------------55555555-44444444----------------------------44444-555--|

Riff 3 (1:42)
D |---------------------------------|
A |---------------------------------|
E |--3~-2~-------3~-5~-4~-----------|
B |--------5~-4~----------4~-44-55--|

Fill (2:32)
D |------|
A |------|
E |------|
B |--0~--|

Riff 4 (2:38)
D |-----------------------------------------|
A |-----------------------------------------|
E |--10~-12---------------10~-12~-10-12-7~--|
B |---------10~--7~-5-7~--------------------|

Riff 1 (4:12)

Riff 5 (5:02)
D |-----------------------------------|
A |-----------------------------------|
E |--8888-8888-8888-8888-8888-8-------|
B |-----------------------------33-0--|
Добавлено: 08.06.2012
Вам также может быть интересно:
Другие материалы по этой песне:
  • Аккорды и текст

Страница создана 08.06.2012
http://primanota.ru/cult-of-luna/white-cell-chords.htm
Привет, Гость.
Предлагаем пройти революционный курс по гитаре.
Подарок от PrimaNota.Ru, забирай!