PrimaNota.ru - самый крупный в мире бесплатный архив песенных текстов, аккордов, табулатур и нот


Cult Of Luna - Receiver - текст песни, бас-таба, видео

Регистрация Запомнить меня
Войти через:  Facebook Google Twitter Vk Yandex Mail.ru

Cult Of Luna - Receiver - текст песни, бас-таба, видео

Печатать
Просмотров: 301
Cult Of Luna - Receiver
Tuning: B E A D

Riff 1 (0:00) (Distortion Effect)
D |------------------|
A |------------------|
E |--4~----5-4--7-7--|
B |-----0~------0-0--|

Riff 2 (0:44)
D |----------------------------------------|
A |----------------------------------------|
E |------7-5------------333333333-00-2222--|
B |--000-0-0-0000000000--------------------|

D |----------------------------------------|
A |----------------------------------------|
E |------7-5---------------------22222222--|
B |--000-0-0-0000000000-33333333-----------|

Riff 3 (1:58) (Very hard to hear) (Distortion Off)
D |-----------------------|
A |-----------------------|
E |-----------------------|
B |--7-7~-5-5~-0-0~-0-0~--|

Riff 4 (3:44)
D |-------------------|
A |-------------------|
E |-------------------|
B |--7~-8-5~-7-0~-0~--|

Fill (4:13) (turn on distortion when you hit the open)
D |----------------|
A |----------------|
E |----------------|
B |--7~-8-5~-7-0~--|

Riff 5 (4:27)
D |---------------------------------------------------------|
A |---------------------------------------------------------|
E |---------------------------------------------------------|
B |--55555555-55555555-11111111-11111111-00000000-00000000--|

D |-----------------------------------------------------------------|
A |-----------------------------------------------------------------|
E |-----------------------------------------------------------------|
B |--5555555-55-5^-55-5^-66666666-66666666-11111111-11111111-0~-1~--|

Riff 1 (5:27)
Riff 2 (6:11)
Riff 5 (6:41)
Добавлено: 23.04.2012
Другие материалы по этой песне:
  • Аккорды и текст

Страница создана 23.04.2012
http://primanota.ru/cult-of-luna/receiver-chords.htm
Привет, Гость.
Предлагаем пройти революционный курс по гитаре.
Подарок от PrimaNota.Ru, забирай!