PrimaNota.ru - самый крупный в мире бесплатный архив песенных текстов, аккордов, табулатур и нот


Cult Of Luna - Into The Beyond - текст песни, бас-таба, видео

Регистрация Запомнить меня
Войти через:  Facebook Google Twitter Vk Yandex Mail.ru

Cult Of Luna - Into The Beyond - текст песни, бас-таба, видео

Печатать
Просмотров: 181
-----------------------------------------------------------------
Into The Beyond - Cult Of Luna
-----------------------------------------------------------------

Tabbed By : Maslowmassacre
e-mail : post_blue@hotmail.com

Tuning: Standard


G|--------------------------------------------------------------------|
D|--------------------------------------------------------------------|   X8
A|----------------------77/66-----------------------------------------|
E|---5-7-7-5-7~-5-7-7-5-------5-7-7-5-7~-3-5-5-3-5~-------------------|

(1.12)
G|-------------------------------------------------------------------|
D|-------------------------------------------------------------------|  X2
A|-------------------------------------------------------------------|
E|---3-5-35-3-5-35-3-5-35-3-5-35/6----------- -----------------------|

(1.30)
G|--------------------------------------------------------------------|
D|--------------------------------------------------------------------|   X8
A|----------------------77-66-----------------------------------------|
E|---5-7-7-5-7~-5-7-7-5-------5-7-7-5-7~-3-5-5-3-5~------ ------------|

(2.41)
G|------------------------------------------------------------------|
D|------------------------------------------------------------------|
A|------------------------------------------------------------------|
E|-0-0-0-6-6-5-5-5-5-5h6-6-6-6-6---0-0-0-6-6-5-5-5-5-5h3-3-3-3-3----|

G|-----------------------------------------------------------------|
D|-----------------------------------------------------------------|
A|-----------------------------------------------------------------|
E|-0-0-0-6-6-5-5-5-5-5h6-6-6-6-6-----------------------------------|

(2.54)
G|------------------------------------------------------------------|
D|------------------------------------------------------------------|
A|------------------------------------------------------------------|
E|-3-3-3-3-3-3-3-3-5-5-5-5-5-5-5-5-2-2-2-2-2-2-2-2-3-3-3-3-2-2-2-2--|

(3.04)
G|------------------------------------------------------------------|
D|------------------------------------------------------------------|
A|------------------------------------------------------------------|
E|-0-0-0-6-6-5-5-5-5-5h6-6-6-6-6---0-0-0-6-6-5-5-5-5-5h3-3-3-3-3----|

G|------------------------------------------------------------------|
D|------------------------------------------------------------------|
A|------------------------------------------------------------------|
E|-0-0-0-6-6-5-5-5-5-5h6-6-6-6-6------------------------------------|

(3.16)
G|------------------------------------------------------------------|
D|------------------------------------------------------------------|
A|------------------------------------------------------------------|
E|-3-3-3-3-3-3-3-3-5-5-5-5-5-5-5-5-2-2-2-2-2-2-2-2-3-3-3-3-2-2-2-2--|

(3.24)
G|--------------------------------------------------------------------|
D|--------------------------------------------------------------------|   X6
A|----------------------77/66-----------------------------------------|
E|---5-7-7-5-7~-5-7-7-5-------5-7-7-5-7~-3-5-5-3-5~-------------------|

(4.18)
G|------------------------------------------------------------------|
D|------------------------------------------------------------------|
A|------------------------------------------------------------------|
E|-0-0-0-6-6-5-5-5-5-5h6-6-6-6-6---0-0-0-6-6-5-5-5-5-5h3-3-3-3-3----|

G|------------------------------------------------------------------|
D|------------------------------------------------------------------|
A|------------------------------------------------------------------|
E|-0-0-0-6-6-5-5-5-5-5h6-6-6-6-6------------------------------------|

(4.31)
G|------------------------------------------------------------------|
D|------------------------------------------------------------------|
A|------------------------------------------------------------------|
E|-3-3-3-3-3-3-3-3-5-5-5-5-5-5-5-5-2-2-2-2-2-2-2-2-3-3-3-3-2-2-2-2--|

(4.39)
G|------------------------------------------------------------------|
D|------------------------------------------------------------------|
A|------------------------------------------------------------------|
E|-0-0-0-6-6-5-5-5-5-5h6-6-6-6-6---0-0-0-6-6-5-5-5-5-5h3-3-3-3-3----|

G|------------------------------------------------------------------|
D|------------------------------------------------------------------|
A|------------------------------------------------------------------|
E|-0-0-0-6-6-5-5-5-5-5h6-6-6-6-6------------------------------------|


(4.52)
G|------------------------------------------------------------------|
D|------------------------------------------------------------------|
A|------------------------------------------------------------------|
E|-3-3-3-3-3-3-3-3-5-5-5-5-5-5-5-5-2-2-2-2-2-2-2-2-3-3-3-3-2-2-2-2--|

(5.00)
G|-----------------------------------------------------------------|
D|-----------------------------------------------------------------|
A|-----------------------------------------------------------------|
E|-1-1-1-1-1-1-1-1-1-1-1-3-3-3-0-0-0-0-0-0-0-0-0-0-0-0-0-0-0-0-----|

G|---------------------------------------------------------------|
D|---------------------------------------------------------------|
A|---------------------------------------------------------------|
E|-1-1-1-1-1-1-1-1-1-1-1-3-1-0-0-0-0-0-0-0-0-1-1-1-1-0-0-1-1-0-0 |

5.18

G|-----------------------------------------------------------------|
D|-----------------------------------------------------------------|
A|-----------------------------------5-5-5-3-3-3-------------------|
E|-5-5-5-3-3-3-5-5-5-3-3-3-5-5-3-3-------------5-5-5-3-3-3-3-3-3---|

G|-----------------------------------------------------------------|
D|-----------------------------------------------------------------|
A|-----------------------------------5-5-5-3-3-3-------------------|
E|-5-5-5-3-3-3-5-5-5-3-3-3-5-5-3-3-------------5-5-5-3-3-3-3-3-3---|

(5.34)

G|---------------------------------------------------------------|
D|---------------------------------------------------------------|
A|---------------------------------------------------------------|
E|-1-1-1-1-1-1-1-1-1-1-1-3-1-0-0-0-0-0-0-0-0-1-1-1-1-0-0-1-1-0-0 |

G|---------------------------------------------------------------|
D|---------------------------------------------------------------|
A|---------------------------------------------------------------|
E|-1-1-1-1-1-1-1-1-1-1-1-3-1-0-0-0-0-0-0-0-0-1-1-1-1-0-0-1-1-0-0 |

(5.51)
G|-----------------------------------------------------------------|
D|-----------------------------------------------------------------|
A|-----------------------------------5-5-5-3-3-3-------------------|
E|-5-5-5-3-3-3-5-5-5-3-3-3-5-5-3-3-------------5-5-5-3-3-3-3-3-3---|


(6.01)
G|-----------------------------------------------------------------|
D|-----------------------------------------------------------------|
A|-----------------------------------------------------------------|
E|--3-3-3-3-4-4-4-5~-3-3-3-3-3-3-3-3-3-3-3-3-4-4-4-5~--------------|

(6.12)
G|------------------------------------------------------------------|
D|------------------------------------------------------------------|
A|------------------------------------------------------------------|
E|--7-7-7-7-7-7-7-7-5-12-12-12-12-12-12-----------------------------|
G|------------------------------------------------------------------|
D|------------------------------------------------------------------|
A|------------------------------------------------------------------|
E|--5-5-5-5-5-5-5-5-2-2-2-2-2-2-2-2---------------------------------|


| /  slide up
| \  slide down
| h  hammer-on
| p  pull-off
| ~  vibrato
| +  harmonic
| x  Mute note

this is played with a standard bass guitar tuning.
i may finish this tab at a later date.
however, for those wishing for the entire peice, may i suggest that you simply use what 
have already given you and apply it to the rest of the song.

this song is too easy to improvise.
but none the less, in my opinion the smoothest of their collective.
Добавлено: 04.05.2012
Другие материалы по этой песне:
  • Аккорды и текст

Страница создана 04.05.2012
http://primanota.ru/cult-of-luna/into-the-beyond-chords.htm
Привет, Гость.
Предлагаем пройти революционный курс по гитаре.
Подарок от PrimaNota.Ru, забирай!