PrimaNota.ru - самый крупный в мире бесплатный архив песенных текстов, аккордов, табулатур и нот


Cuby And The Blizzards - Thursday Night - таба, видео

Регистрация Запомнить меня
Войти через:  Facebook Google Twitter Vk Yandex Mail.ru

Cuby And The Blizzards - Thursday Night - таба, видео

Печатать
Просмотров: 73
Cuby And The Blizzards – Thursday Night

      Cmdim5/Gb      G
e|-------------------------
B|---34-4-4----3643-------- \
G|--5---------5----5-5-5-4-  2x
D|-5---------5------------- /
A|-------------------------
E|-------------------------

C                G
Thursday night I found out
Bb                    F
That I loved a girl before
Ab                     Cm/G
But now she's gone and left me
Cmdim5/Gb          G 
I can't take it no more

C                G
Thursday night I found out
Bb                 F
That I felt like a lonely tree
Ab                  Cm/G
Yes, she's gone and left me
Cmdim5/Gb             G
Another man I used to be

C                                  D
Thursday night I was sittin' in my lonely place
Dm                                  C
While the shadow slowly watched the floor
C              D
Try to get my brains together
Dm                  C
It will all work no more

C                            G
Thursday night what have you done to me
Bb                      F
'Cause I got no love at all
Ab                    Cm/G
Why don't you sent it back to me
Cmdim5/Gb                        G
Show her the right things of the wall

C                G
Thursday night I came home
Bb                  F
What do you think I saw
Ab                  Cm/G
The girl I loved before was there
Cmdim5/Gb            G
And I took her in my arms

C   \
D    play these
Dm   chords twice
C   /

C                G
Thursday night I came home
Bb                  F
What do you think I saw
Ab                  Cm/G
The girl I loved before was there
Cmdim5/Gb            G
And I took her in my arms

Outro
      Cmdim5/Gb      G
e|-------------------------
B|---34-4-4----3643-------- \
G|--5---------5----5-5-5-4-  2x
D|-5---------5------------- /
A|-------------------------
E|-------------------------

      Cmdim5/Gb          Cm/G          Cmdim5/Gb 
e|-------------------810-11--------1110--------------|
B|---34-4-4---------8------------------13-------1110-|
G|--5-------------78---------------------------------|
D|-5------------10-----------------------------------|
A|------------10-------------------------------------|
E|---------------------------------------------------|

   Cm/G         Cmdim5/Gb  G
e|----------------------------|
B|----------10----------------|
G|-12---------1211---------12-|
D|----------------------------|
A|----------------------------|
E|----------------------------|

End on Cmdim5/Gb



   Cmdim5/Gb
e|-----2-----|
B|-----4-----|
G|-----5-----|
D|-----4-----|
A|-----x-----|
E|-----2-----|
Добавлено: 28.11.2013
Другие материалы по этой песне:
  • Аккорды и текст

Страница создана 09.06.2013
http://primanota.ru/cuby-and-the-blizzards/thursday-night-chords.htm
Привет, Гость.
Предлагаем пройти революционный курс по гитаре.
Подарок от PrimaNota.Ru, забирай!