PrimaNota.ru - самый крупный в мире бесплатный архив песенных текстов, аккордов, табулатур и нот


Cub Scouts - Do You Hear - бас-таба, видео

Регистрация Запомнить меня
Войти через:  Facebook Google Twitter Vk Yandex Mail.ru

Cub Scouts - Do You Hear - бас-таба, видео

Печатать
Просмотров: 75
-------------------------------------------------------------------------------
                             Do You Hear - Cub Scouts
-------------------------------------------------------------------------------
Tabbed by: James
E-mail: james_agathos@hotmail.com


Intro

G|-----------------------|----------------------------------|
D|-----------------------|----------------------------------|         x2
A|-----------------------|----------------------------------|
E|13--13--13---13-13-12-|13--13--13---13-13-12--------------|

Verse

G|-----------------------|----------------------------------|
D|-----------------------|----------------------------------|         x3
A|-----------------------|----------------------------------|
E|13--13--13---13-13-12-|13--13--13---13-13-12--------------|

G|-----------------------|-------------------------|
D|-----------------------|-------------------------|
A|-----------------------|--------------------10---|
E|13--13--13---13-13-12-|13--13--13---13-13--------|

Pre-Chorus

G|-----------------------|-------------------------|
D|-----------------------|-------------------------|
A|12--12--12---12-12-14-|15--15--15---15-15-14-----|
E|-----------------------|-------------------------|

G|-----------------------|-----------------------------|
D|-----------------------|-----------------------------|
A|12--12--12---12-12-14-|15--15--15-15/17-15-15-14-----|
E|-----------------------|-----------------------------|

G|-----------------------|--------------------------------|
D|-----------------------|--------------------------------|       x2
A|-----------------------|--------------------------------|
E|13--13--13---13-13-12-|13--13--13---13-13-12------------|

Chorus

G|------------------|------------------------|
D|------------------|------------------------|   x4
A|------------------|------------------------|
E|13--13--13-----10/|15--15--15-----17-------|

Verse

G|-----------------------|----------------------------------|
D|-----------------------|----------------------------------|         x3
A|-----------------------|----------------------------------|
E|13--13--13---13-13-12-|13--13--13---13-13-12--------------|

G|-----------------------|-------------------------|
D|-----------------------|-------------------------|
A|-----------------------|--------------------10---|
E|13--13--13---13-13-12-|13--13--13---13-13--------|

Pre-Chorus

G|-----------------------|-------------------------|
D|-----------------------|-------------------------|
A|12--12--12---12-12-14-|15--15--15---15-15-14-----|
E|-----------------------|-------------------------|

G|-----------------------|-----------------------------|
D|-----------------------|-----------------------------|
A|12--12--12---12-12-14-|15--15--15-15/17-15-15-14-----|
E|-----------------------|-----------------------------|

G|-----------------------|--------------------------------|
D|-----------------------|--------------------------------|       x2
A|-----------------------|--------------------------------|
E|13--13--13---13-13-12-|13--13--13---13-13-12------------|

Chorus

G|------------------|------------------------|
D|------------------|------------------------|   x4
A|------------------|------------------------|
E|13--13--13-----10/|15--15--15-----17-------|

Bridge

G|-----------------------|-------------------------|
D|-----------------------|-------------------------|
A|12--12--12---12-12-14-|15--15--15---15-15-14-----|
E|-----------------------|-------------------------|

G|-----------------------|-----------------------------|
D|-----------------------|-----------------------------|
A|12--12--12---12-12-14-|15--15--15-15/17-15-15-14-----|
E|-----------------------|-----------------------------|

G|-----------------------|--------------------------------|
D|-----------------------|--------------------------------|       x2
A|-----------------------|--------------------------------|
E|13--13--13---13-13-12-|13--13--13---13-13-12------------|

Chorus

G|------------------|------------------------|
D|------------------|------------------------|   x4
A|------------------|------------------------|
E|13--13--13-----10/|15--15--15-----17-------|

Outro

G|-----------------------|-------------------------|
D|-----------------------|-------------------------|
A|-----------------------|-------------------------|
E|13--13--13---13-13-12-|13--13--13---13-13-12-----|

G|-----------------------|-------------------------|
D|-----------------------|-------------------------|
A|-----------------------|-------------------------|
E|13--13--13---13-13-12-|13--13--13----------------|


Okay, yeah, that should be it. Some basic stuff to help:
The x2 or x4 or whatever just means to play that line (not the whole section, just that 
line) that many times.
/ means to slide up. So in the chorus, the 10/15 means to slide from the 10th fret 
to the 15th fret.
\ means to slide down. So you'll be sliding from the 17th fret down to the 13th.
And it'll probably help to listen to the song, cos this might be pretty confusing otherwise.

So yeah, enjoy! :)

https://www.facebook.com/CubScoutsMusic
Добавлено: 14.11.2013
Другие материалы по этой песне:
  • Аккорды и текст

Страница создана 14.11.2013
http://primanota.ru/cub-scouts/do-you-hear-chords.htm
Привет, Гость.
Предлагаем пройти революционный курс по гитаре.
Подарок от PrimaNota.Ru, забирай!