PrimaNota.ru - самый крупный в мире бесплатный архив песенных текстов, аккордов, табулатур и нот


Ctc - Hey - аккорды и текст, видео

Регистрация Запомнить меня
Войти через:  Facebook Google Twitter Vk Yandex Mail.ru

Ctc - Hey - аккорды и текст, видео

Печатать
Просмотров: 78
Hey
Ctc
I have labeled the verse, solo, and chorus, and then the order

this is my tab for "hey", by CtC, It's a great song from theri first album

this is the verse and basic riff                                              
                          
E------------------------|-----------------------|----------------------
B------------------------|-----------------------|----------------------
G---2--2--2--2--2-----7--|--2--2--2--2--2-----9--|--2--2--2--2--2-------
D---2--2--2--2--2-----7--|--2--2--2--2--2-----9--|--2--2--2--2--2-------
A---0--0--0--0--0-----5--|--0--0--0--0--0-----7--|--0--0--0--0--0-------
E------------------------|--------------------0--|----------------------
                                                                        

                                  this is the tapping solo over the top       
                                                                 
E------|-----------------------|--12--9--5--12--9--5--10--10--|--12-----
B------|-----------------------|------------------------------|---------
G---7--|--2--2--2--2--2-----9--|------------------------------|---------
D---7--|--2--2--2--2--2-----9--|------------------------------|---------
A---5--|--0--0--0--0--0-----7--|------------------------------|---------
E------|--------------------0--|------------------------------|---------
                                                                        

                                                                        
E---9--5--12--9--5--12--12--|-------------------------------------------
B---------------------------|-------------------------------------------
G---------------------------|-------------------------------------------
D---------------------------|-------------------------------------------
A---------------------------|-------------------------------------------
E---------------------------|-------------------------------------------
                                                                        

and then the chorus and solo are D  G  A


here's the pattern

main riff and verse  x4
    start solo tapping after 2nd time
chorus  x2
main riff and verse  x4
chorus x2
solo
-end-
========================================================================
==                       TABLATURE EXPLANATION                        ==
========================================================================

----------                ----------                ----t---
----5h8--- Hammeron       ----(8)--- Ghost          ----6--- Tap
----------                ---------- Note           --------
----5p8--- Pulloff        ----------                --------

----------                ----------                -----p--
----5/8--- Slide Up       -----x---- Dead           -----7-- Pop
----------                ---------- Note           --s-----
----5\8--- Slide Down     ----------                --5----- Slap 

----------                ||------|| Repeat         --------
----5~~~-- Vibrato        ||*----*||                ---5^--- Bend
----------                ||*----*||                --------
----------                ||------||                --------

----------                ----------                --------
-4:------- Time           ----------                --------
-4:------- Signature      ----------                --------
----------                ----------                --------

Rhythm:
  w = whole note            W = dotted whole
  h = half note             H = dotted half
  q = quarter note          Q = dotted quarter
  e = eighth note           E = dotted eighth
  s = sixteenth note        S = dotted sixteenth
  t = 32nd note             T = dotted 32nd
  x = 64th note             X = dotted 64th
  ^ = triplet

========================================================================
==               Created by Jim              ==
==                  For more info email theadamproject@vh1.com                
   ==
========================================================================

     
Добавлено: 03.11.2013
Другие материалы по этой песне:
  • Аккорды и текст

Страница создана 03.11.2013
http://primanota.ru/ctc/hey-chords.htm
Привет, Гость.
Предлагаем пройти революционный курс по гитаре.
Подарок от PrimaNota.Ru, забирай!