PrimaNota.ru - самый крупный в мире бесплатный архив песенных текстов, аккордов, табулатур и нот


Css - Rat Is Dead Rage - текст песни, таба, бас-таба, видео

Регистрация Запомнить меня
Войти через:  Facebook Google Twitter Vk Yandex Mail.ru

Css - Rat Is Dead Rage - текст песни, таба, бас-таба, видео

Печатать
Просмотров: 177
Авторы музыки: Adriano Cintra
Авторы текста: Adriano Cintra
This is basicly the song. Probably not 100% right but its pretty close. Not that 
hard to master. Not the best tab either.

     \-slide down
     /-slide up
     b-1/2bend
     >-hold note out
     p-palm mute                Intro 

  1 & 2 & 3 & 4 & 1 & 2 & 3 & 4 &   1 & 2 & 3 & 4 & 1 & 2 & 3 & 4 &
e|--------------------------------|-----------------------------------|
B|--------------------------------|-----------------------------------|
G|--------------------------------|-----------------------------------|
D|4-4-4-4-4-4-4-4-4-4-4-4-5-4-7b--|-4-4-4-4-4-4-4-4-4-4-4-4-5-4-4/10\4|X2
A|--------------------------------|-----------------------------------|
E|--------------------------------|-----------------------------------|

                                Verse part
 ------*ALL PALM MUTED*-------------------------------------------------
  1 & 2 & 3 & 4  & 1 & 2 &  3  &  4  1 & 2 & 3 & 4  & 1 & 2 & 3 &  4  &
e|---------------------------------|------------------------------------|
B|---------------------------------|------------------------------------|
G|-------------------------9--11-9-|------------------------------------|
D|7-7-9--11--12-12--11--7----------|-7-7-9---11--12-12--11--7-9-11-9--7-|X2
A|---------------------------------|------------------------------------|
E|---------------------------------|------------------------------------|

*Very fast continuous strumming on the first 11 then hold out and slide down to 1 at arrow(>)*
  1 & 2 & 3 & 4 & 1 & 2 & 3 & 4 & 
e|--------------------------------|
B|--------------------------------|
G|-11==========================>--|
D|--------------------------------|Then go to second part of intro and play 
A|--------------------------------|IT and the whole intro part. After that, 
E|--------------------------------|go to chorus.

                                Chorus
  1 & 2 & 3 & 4 & 1 & 2 & 3 & 4 &   1 & 2 & 3 & 4 & 1 & 2 & 3 & 4 &
e|---------------------------------|-----------------------------------|
B|---------------------------------|-----------------------------------|
G|---------------------------------|-----------------------------------|
D|-4-4-4-2-2-2-4-4-4-2-2-2-4-4-7-7-|-5-5-5-4-4-4-----------------------|
A|---------------------------------|-------------5-5-5-5-5-5-2>--5>----|X2
E|---------------------------------|-----------------------------------|

                             *Go to intro part*
                    *Then to verse part and repeat instructions*



                      *****Ending Notes*****(very end)
                   e|-----------------------------------|
                   B|-----------------------------------|
                   G|-----------------------------------|
                   D|11h12p11h12p11h12p11h12p11h12p11h12|
                   A|-----------------------------------|
                   E|-----------------------------------|
*****SO THE ORDER IS*****:
intro,
verse,
chorus,
intro,
chorus,
into,
verse,
intro,
chorus,
part i dont know,
held out 11 part,
intro,
chorus X2 the times two,
ending part.
Sorry its so confusing. i try to lay it all on the line...
                      
The rest you will have to figure out because of awkward notes lol I think you understand.
Добавлено: 06.04.2012
Другие материалы по этой песне:
  • Аккорды и текст

Страница создана 06.04.2012
http://primanota.ru/css/rat-is-dead-rage-chords.htm
Привет, Гость.
Предлагаем пройти революционный курс по гитаре.
Подарок от PrimaNota.Ru, забирай!