PrimaNota.ru - самый крупный в мире бесплатный архив песенных текстов, аккордов, табулатур и нот


Css - Patins - таба, видео

Регистрация Запомнить меня
Войти через:  Facebook Google Twitter Vk Yandex Mail.ru

Css - Patins - таба, видео

Печатать
Просмотров: 206
CSS
Patins


INTRO

guitar 1

e--------------------------------------------|
b-7-7-7-7-7-10-10-10---12-12-10---12-12-10---|
g-7-7-7-7-7--9--9--9---11-11--9---11-11--9---| x4
d--------------------------------------------|
a--------------------------------------------|
E--------------------------------------------|

guitar 2

e---------------------------------------------|
b---------------------------------------------|
g--7-7-7-7-7-5-5-5-2-2-5--2-2-5---------------|
d--7-7-7-7-7-5-5-5-2-2-5--2-2-5---------------|
a--5-5-5-5-5-3-3-3-0-0-3--0-0-3---------------|
E---------------------------------------------|

VERSE

Guitar 1

e--------------------------8--------------------------8---|
b---7-7-7-7-5----7-7-7-7-5-----7-7-7-7-5----7-7-7-7-5-----|
g-------------7--------------------------7----------------| x2
d---------------------------------------------------------|
a---------------------------------------------------------|
E---------------------------------------------------------|

Guitar 2

e---------------------------------------------------------|
b---------------------------------------------------------|
g---5-5-----2-2----------------5-5-----2-2----------------|
d---5-5-----2-2----------------5-5-----2-2----------------| x2
a---3-3-----0-0----------------3-3-----0-0----------------|
E---------------------------------------------------------|

Guitar 1

e-----------------------------------------------------------------|
b---8-6-5-6-6-5-8-5------8-6-5-6-6-5-8-5------8-6-5-6-6-5-8-5-----|
g-------------------7-5------------------7-5------------------7-5-|
d-----------------------------------------------------------------|
a-----------------------------------------------------------------|
E-----------------------------------------------------------------|


Guitar 2

e-----------------------------------------------------------------|
b-----------------------------------------------------------------|
g---5-5-------2-2--------5-5-------2-2--------5-5-------2-2-------|
d---5-5-------2-2--------5-5-------2-2--------5-5-------2-2-------|
a---3-3-------0-0--------3-3-------0-0--------3-3-------0-0-------|
E-----------------------------------------------------------------|

Guitar 1

e------------------------------------------|
b--8-6-5-6-6-///-10-10-10-10-10-10-10-10---|
g------------///--9--9--9--9--9--9--9--9---|
d------------------------------------------|
a------------------------------------------|
E------------------------------------------|

Guitar 2

e-----------------------------------------|
b-----------------------------------------|
g---5-5----2///7-7-7-7-7-7-7-7------------|
d---5-5----2///7-7-7-7-7-7-7-7------------|
a---3-3----0///5-5-5-5-5-5-5-5------------|
E-----------------------------------------|

CHORUS

Guitar 1

e--------------------------------------------|
b-7-7-7-7-7-10-10-10---12-12-10---12-12-10---|
g-7-7-7-7-7--9--9--9---11-11--9---11-11--9---| x4
d--------------------------------------------|
a--------------------------------------------|
E--------------------------------------------|

guitar 2

e---------------------------------------------|
b---------------------------------------------|
g--7-7-7-7-7-5-5-5-2-2-5--2-2-5---------------| x4
d--7-7-7-7-7-5-5-5-2-2-5--2-2-5---------------|
a--5-5-5-5-5-3-3-3-0-0-3--0-0-3---------------|
E---------------------------------------------|

VERSE 2

Guitar 1

e--------------------------8--------------------------8---|
b---7-7-7-7-5----7-7-7-7-5-----7-7-7-7-5----7-7-7-7-5-----|
g-------------7--------------------------7----------------|
d---------------------------------------------------------| x2
a---------------------------------------------------------|
E---------------------------------------------------------|

Guitar 2

e---------------------------------------------------------|
b---------------------------------------------------------|
g---5-5-----2-2----------------5-5-----2-2----------------|
d---5-5-----2-2----------------5-5-----2-2----------------| x2
a---3-3-----0-0----------------3-3-----0-0----------------|
E---------------------------------------------------------|

Guitar 1

e-----------------------------------------------------------------|
b---8-6-5-6-6-5-8-5------8-6-5-6-6-5-8-5------8-6-5-6-6-5-8-5-----|
g-------------------7-5------------------7-5------------------7-5-|
d-----------------------------------------------------------------|
a-----------------------------------------------------------------|
E-----------------------------------------------------------------|


Guitar 2

e-----------------------------------------------------------------|
b-----------------------------------------------------------------|
g---5-5-------2-2--------5-5-------2-2--------5-5-------2-2-------|
d---5-5-------2-2--------5-5-------2-2--------5-5-------2-2-------|
a---3-3-------0-0--------3-3-------0-0--------3-3-------0-0-------|
E-----------------------------------------------------------------|

Guitar 1

e------------------------------------------|
b--8-6-5-6-6-///-10-10-10-10-10-10-10-10---|
g------------///--9--9--9--9--9--9--9--9---|
d------------------------------------------|
a------------------------------------------|
E------------------------------------------|

Guitar 2

e-----------------------------------------|
b-----------------------------------------|
g---5-5----2///7-7-7-7-7-7-7-7------------|
d---5-5----2///7-7-7-7-7-7-7-7------------|
a---3-3----0///5-5-5-5-5-5-5-5------------|
E-----------------------------------------|

CHORUS

Guitar 1

e--------------------------------------------|
b-7-7-7-7-7-10-10-10---12-12-10---12-12-10---|
g-7-7-7-7-7--9--9--9---11-11--9---11-11--9---| x4
d--------------------------------------------|
a--------------------------------------------|
E--------------------------------------------|

guitar 2

e---------------------------------------------|
b---------------------------------------------|
g--7-7-7-7-7-5-5-5-2-2-5--2-2-5---------------| x4
d--7-7-7-7-7-5-5-5-2-2-5--2-2-5---------------|
a--5-5-5-5-5-3-3-3-0-0-3--0-0-3---------------|
E---------------------------------------------|

BREAK

Guitar 1

e------------------------------------|
b------------------------------------|
g------------------------------------|
d-------2-2----3-3----5-5----10-10---|
a-------2-2----3-3----5-5----10-10---|
E-------0-0----5-5----3-3-----8--8---|


Guitar 2

e------------------------------------|
b------------------------------------|
g------------------------------------|
d---2-2----3-3----5-5----10-10-------|
a---2-2----3-3----5-5----10-10-------|
E---0-0----5-5----3-3-----8--8-------|

(No Guitar 1 part here)

Guitar 2

e------------------------------------|
b------------------------------------|
g------------------------------------|
d---2-2----3-3----5-5----10-10-------|
a---2-2----3-3----5-5----10-10-------|
E---0-0----5-5----3-3-----8--8-------|

Guitar 2

e-----------------------------------------------------------|
b-----------------------------------------------------------|
g-----------------------------------------------------------|
d---2-2-(222)-2/-5-5-(555)-3/-7-7-(777)-7/-10-10-(101010)---|
a---2-2-(222)-2/-5-5-(555)-3/-7-7-(777)-7/-10-10-(101010)---|
E---0-0-(000)-0/-3-3-(333)-3/-5-5-(555)-5/--8--8-(-8-8-8)---|

Guitar 2

e-------------------------------------------------------------------|
b-------------------------------------------------------------------|
g-------------------------------------------------------------------|
d---2-2-(222)-2/-5-5-(555)-3/-7-7-(777)-7/-10-10-10-10-10-10-10-10--|
a---2-2-(222)-2/-5-5-(555)-3/-7-7-(777)-7/-10-10-10-10-10-10-10-10--|
E---0-0-(000)-0/-3-3-(333)-3/-5-5-(555)-5/--8--8--8--8--8--8--8--8--|

CHORUS

Guitar 1

e--------------------------------------------|
b-7-7-7-7-7-10-10-10---12-12-10---12-12-10---|
g-7-7-7-7-7--9--9--9---11-11--9---11-11--9---| x4
d--------------------------------------------|
a--------------------------------------------|
E--------------------------------------------|

guitar 2

e---------------------------------------------|
b---------------------------------------------|
g--7-7-7-7-7-5-5-5-2-2-5--2-2-5---------------| x4
d--7-7-7-7-7-5-5-5-2-2-5--2-2-5---------------|
a--5-5-5-5-5-3-3-3-0-0-3--0-0-3---------------|
E---------------------------------------------|

END
Добавлено: 26.07.2012
Другие материалы по этой песне:
  • Аккорды и текст

Страница создана 26.07.2012
http://primanota.ru/css/patins-chords.htm
Привет, Гость.
Предлагаем пройти революционный курс по гитаре.
Подарок от PrimaNota.Ru, забирай!