PrimaNota.ru - самый крупный в мире бесплатный архив песенных текстов, аккордов, табулатур и нот


Css - Music Is My Hot Hot Sex - текст песни, таба, бас-таба, видео

Регистрация Запомнить меня
Войти через:  Facebook Google Twitter Vk Yandex Mail.ru

Css - Music Is My Hot Hot Sex - текст песни, таба, бас-таба, видео

Печатать
Просмотров: 351
Уроки эстрадного вокала в Санкт-Петербурге
Standard tuning.

Intro:

Guitar 1 & 2 (different strumming patterns and some dead notes inbetween chords):
e------------------------|
B------------------------|
G------------------------|
D--6----9--8--9--2---4---|
A--6----9--8--9--2---4---|    x4
E--4----7--6--7--0---2---|


Verse:

e-------------------5/7--7--9--7--|
B-------------------7/9--9--9--9--|
G---------------------------------|
D---------------------------------|
A---------------------------------|
E---------------------------------|


e---------5/7--7----5/7--7--9--7--|
B---------7/9--9----7/9--9--9--9--|
G---------------------------------|
D---------------------------------|
A---------------------------------|   x2
E---------------------------------|


e---------5/7--7----5/7--7--------|
B---------7/9--9----7/9--9--------|
G---------------------------------|
D---------------------------------|
A---------------------------------|
E---------------------------------|


Chorus:

e-----------------7--6--|
B--7--9--7-9-7-9--------|
G-----------------------|
D-----------------------|
A-----------------------|     x7
E-----------------------|


e-----------------7-----|
B--7--9--7-9-7-9--------|
G-----------------------|
D-----------------------|
A-----------------------|
E-----------------------|

play:

intro
verse
chorus
intro
verse
chorus
intro
chorus
Добавлено: 29.06.2012
Другие материалы по этой песне:
  • Аккорды и текст

Страница создана 09.03.2012
http://primanota.ru/css/music-is-my-hot-hot-sex-chords.htm
Привет, Гость.
Предлагаем пройти революционный курс по гитаре.
Подарок от PrimaNota.Ru, забирай!