PrimaNota.ru - самый крупный в мире бесплатный архив песенных текстов, аккордов, табулатур и нот


Css - Lets Reggae All Night - текст песни, бас-таба, видео

Регистрация Запомнить меня
Войти через:  Facebook Google Twitter Vk Yandex Mail.ru

Css - Lets Reggae All Night - текст песни, бас-таба, видео

Печатать
Просмотров: 189
Авторы музыки: Adriano Cintra
Авторы текста: Lovefoxxx
Let's Reggae All Night- CSS

Tabbed By : Thunderbird bassist
e-mail: xsarahberries@netscape.net


Tuning: standard

Repeat twice ‘til 0:14
G|---------------------------------------------------------------------------|
D|---------------------------------------------------------------------------|
A|-7757-7555---57757-5757----------------------------------------------------|
E|-----------77--------------------------------------------------------------|


Verse/ chorus are very similar to intro
G|---------------------------------------------------------------------------|
D|---------------------------------------------------------------------------|
A|-7757-7555---57757-5757-57-57----------------------------------------------|
E|-----------77--------------------------------------------------------------|

Repeat 4 times starting at 1:40 to 2:12
G|-----------5---------------------------------------------------------------|
D|-----57757-----------------------------------------------------------------|
A|-7757--------7757-5757-57-57-----------------------------------------------|
E|---------------------------------------------------------------------------|

Then back to the verse/chorus riff

Добавлено: 29.04.2012
Другие материалы по этой песне:
  • Аккорды и текст

Страница создана 29.04.2012
http://primanota.ru/css/lets-reggae-all-night-chords.htm
Привет, Гость.
Предлагаем пройти революционный курс по гитаре.
Подарок от PrimaNota.Ru, забирай!