PrimaNota.ru - самый крупный в мире бесплатный архив песенных текстов, аккордов, табулатур и нот


Css - Lets Make Love And Listen To Death From Above - текст песни, таба, бас-таба, видео

Регистрация Запомнить меня
Войти через:  Facebook Google Twitter Vk Yandex Mail.ru

Css - Lets Make Love And Listen To Death From Above - текст песни, таба, бас-таба, видео

Печатать
Просмотров: 214
Artist: C.S.S.
Album:  Cansei De Der Sexy
Song:   Let's Make Love and Listen to Death From Above


Intro
- - -
- - -


  Guitar
e|-----------------------------|
B|--------------------------1--|
G|--3--2-3--2-3--2-3--2-3-3----|
D|-----------------------------|
A|-----------------------------|
E|-----------------------------|


  Bass
G|--------------------------------------|
D|-------------------------------8-7-6--|
A|--3-3-3-3-3-3-33-55-6-6-6-6-6-6-5-4---|
E|--------------------------------------|


  Effect
e|--11----8-------------|
B|-----------8--11------|
G|----------------------|
D|----------------------|
A|----------------------|
E|----------------------|


Verse
- - -
- - -


  Guitar
e|-----------------------------|
B|--------------------------1--|
G|--3--2-3--2-3--2-3--2-3-3----|
D|-----------------------------|
A|-----------------------------|
E|-----------------------------|


  Keyboard
e|---------------------------------------|----------11------------------11-11------|
B|--13--11------11-13--13-11-11-----11---|--13--11------11-13--13-11-11-------11---|
G|----------12------------------12-------|-----------------------------------------|
D|---------------------------------------|-----------------------------------------|
A|---------------------------------------|-----------------------------------------|
E|---------------------------------------|-----------------------------------------|


  Bass
e|--------------------------------------|--------------------------------------|
B|--------------------------------------|---------------13/1----------------6--|
G|---------------15/3--------------5-5--|--6-6--4h6-4h6-------6-6-4h6-4h6-4----|
D|--8-8--6h8-6h8-------8-8-6h8-6h8------|--------------------------------------|

Chorus
- - -
- - -


  Effect
e|--8-----------------------------8-----------------------11-----|
B|------9-------------9-------------9----11---------11-----------|
G|------------------------10----------10-------8-----------------|
D|----------10---------------------------------------------------|
A|---------------11------------11--------------------------------|
E|---------------------------------------------------------------|


  Guitar
e|--------------------------------------|--------------------------------------|
B|--------------------------------------|--------------------------------------|
G|--------------------------------------|--------------------------------------|
D|--10--8-10--8-10-8--10--8-10--8-10-8--|--10--8-10--8-10-8--10--8-10--8-10-8--|
A|--6---6-6---6-6--6--6---6-6---6-6--6--|--8---8-8---8-8--8--8---8-8---8-8--8--|
E|--------------------------------------|--------------------------------------|

e|--------------------------------------|--------------------------------------|
B|--------------------------------------|--------------------------------------|
G|--------------------------------------|--------------------------------------|
D|--10--8-10--8-10-8--10--8-10--8-10-8--|--10--8-10--8-10-8--10----------------|
A|--------------------------------------|--------------------------------------|
E|--------------------------------------|--------------------------------------|


  Bass
G|--------------------------------|----------------------------------|
D|--------------------------------|----------------------------------|
A|-----------------8-8-6h8-6h8-8--|--3-3-1h3-1h3-3---3-3--3-6-6-8-8--|
E|--4-4-2h4-2h4-4-----------------|----------------------------------|
             (x2)           (x2)


Bridge
- - -
- - -


  Effect
e|--8-----8-----8-----8-----8-----8-----8-----8------|
B|---------------------------------------------------|
G|---------------------------------------------------|
D|---------------------------------------------------|
A|---------------------------------------------------|
E|---------------------------------------------------|

e|--8-----------8-----------8------------------------|
B|---------------------------------------------------|
G|---------------------------------------------------|
D|---------------------------------------------------|
A|---------------------------------------------------|
E|---------------------------------------------------|


  Bass
G|---------------------------------------------------|
D|---------------------------------------------------|
A|--3-3-3-3-3-3-3-3-3-3-3-3-3-3-3-3-3-3-6-6-6-8-8-8--|
E|---------------------------------------------------|

G|---------------------------------------------------|
D|-----------------------------------8-----7-----6---|
A|--3-3-3-3-3-3-3-3-3-3-3-3-3-----6-----5-----4------|
E|---------------------------------------------------|


Tabbed by NintEndO
Добавлено: 05.05.2012
Другие материалы по этой песне:

Страница создана 05.05.2012
http://primanota.ru/css/lets-make-love-and-listen-to-death-from-above-chords.htm
Привет, Гость.
Предлагаем пройти революционный курс по гитаре.
Подарок от PrimaNota.Ru, забирай!