PrimaNota.ru - самый крупный в мире бесплатный архив песенных текстов, аккордов, табулатур и нот


Css - Jager Yoga - бас-таба, видео

Регистрация Запомнить меня
Войти через:  Facebook Google Twitter Vk Yandex Mail.ru

Css - Jager Yoga - бас-таба, видео

Печатать
Просмотров: 270
Уроки эстрадного вокала в Санкт-Петербурге
Авторы музыки: Adriano Cintra
Авторы текста: Ana Rezende, Lovefoxxx, Carolina Parra, Luiza Sá
-------------------------------------------------------------------------------
			     JAGER YOGA - Cansei De Ser Sexy (CSS)
-------------------------------------------------------------------------------

Tabbed By : Andrew Perfect
e-mail: andrewperfect@rocketmail.com

Tuning: Standard

Alright, this is my first bass tab, so don't be too hard on me.  It's pretty
simple, pretty funky, listen to the song to get the rhythm down.


Intro/ Bridges:
G-|---------------------5-5-4-4-5-5----------------------------------|
D-|------7--5-7--------------------------3--2-3----------------------|
A-|----------------3--3---------------------------0--0--3-3-5-5-3-3--|
e-|---5-------------------------------1------------------------------|
         Repeat this loop a whole lot.

Verses/Chorus
G-|-----------------------------------------------------------------|
D-|-----------------------------------------------------------------|
A-|---------------3--3-3-3-2-2-3-3--------------0--0-0-0-3-3-0-0----|
e-|---5--5--3-5----------------------1--1--0-1----------------------|
          Repeat until the last variation which is...

G-|---------------------------------------------------------5-5-----|
D-|-----------------------------------3--3--2-3----7--7-7-7-----7-7-|
A-|---------------3--3-3-3-2-2-3-3----------------------------------|
e-|---5--5--3-5-----------------------------------------------------|
          before going back to the bridge.

Dance-punk Breakdown?? "We didn't come in to the world..." chanting
G-|---------------------------------------------------------|
D-|---------------------------------------------------------|
A-|---------------------------------------------------------|
e-|--5--5--5--5-7-8--8--8--8-5-1--1--1--1-3-5--5--5---8-----|Repeat


Don't confuse the bass and the synth, which covers up the bass lines for most
of the song.  Have fun!
Добавлено: 21.05.2012
Другие материалы по этой песне:
  • Аккорды и текст

Страница создана 21.05.2012
http://primanota.ru/css/jager-yoga-chords.htm
Привет, Гость.
Предлагаем пройти революционный курс по гитаре.
Подарок от PrimaNota.Ru, забирай!