PrimaNota.ru - самый крупный в мире бесплатный архив песенных текстов, аккордов, табулатур и нот


Css - Faith In Love - аккорды и текст, видео

Регистрация Запомнить меня
Войти через:  Facebook Google Twitter Vk Yandex Mail.ru

Css - Faith In Love - аккорды и текст, видео

Печатать
Просмотров: 245
Faith In Love
Css
-------------------------------------------------------------------------------
                             FAITH IN LOVE - CSS
-------------------------------------------------------------------------------
Tabbed by: Seismatters
Tuning: Standard E A D G B E
YouTube Reference Link: http://www.youtube.com/watch?v=Nr-MEHHL8FE

REALLY simple chords for this one (Even though it still got stuck in my head for weeks). 

Simply Repeat for the entire song: Am | Em | G | Am

i.e. 

   Am                                 Em 
   You give me something so beautiful
      G               Am             
   It makes me want to run
         Am                              Em
   I get caught up in so much excitement
      G       Am
   It makes me burn

       Am
   Can you see the light?
                          Em
   Can you see the light?
   G              Am
   I have faith in love

       Am
   Can you see the light?
                          Em
   Can you see the light?
   G              Am
   I have faith in love

  Am                                 Em 
   You give me something so beautiful
      G               Am             
   It makes me want to run
         Am                              Em
   I get caught up in so much excitement
      G       Am
   It makes me burn

       Am
   Can you see the light?
                          Em
   Can you see the light?
   G              Am
   I have faith in love


and because I love you guys so much, here are the two riffs in the song.

Riff 1 (after the first verse)
e|-5-5-5-5-5-5-5-5-3-3-3-3-3-3-3-3-5-5-5-5-5-5-5-5-0-0-0-0-0-0-0-0-----------|
B|---------------------------------------------------------------------------|
G|---------------------------------------------------------------------------|
D|---------------------------------------------------------------------------|
A|---------------------------------------------------------------------------|
E|---------------------------------------------------------------------------|

Riff 2 (on that bit near the end with the violins and the 'la la la la la la la')
e|-10----12-10-10----12-10-10----12-10-10----12-10-10----12-10-10----12-10---|
B|----10----------10----------10----------10----------10----------10---------|
G|---------------------------------------------------------------------------|
D|---------------------------------------------------------------------------|
A|---------------------------------------------------------------------------|
E|---------------------------------------------------------------------------|

e|-10----12-10-8-10----------------------------------------------------------|
B|----10------------10-8-----------------------------------------------------|
G|---------------------------------------------------------------------------|
D|---------------------------------------------------------------------------|
A|---------------------------------------------------------------------------|
E|---------------------------------------------------------------------------|

Enjoy, you little Nightcrawlers.
Добавлено: 10.06.2015
Другие материалы по этой песне:
  • Аккорды и текст

Страница создана 10.06.2015
http://primanota.ru/css/faith-in-love-chords.htm
Привет, Гость.
Предлагаем пройти революционный курс по гитаре.
Подарок от PrimaNota.Ru, забирай!