PrimaNota.ru - самый крупный в мире бесплатный архив песенных текстов, аккордов, табулатур и нот


Crystavox - Tear Down The Wall - таба, видео

Регистрация Запомнить меня
Войти через:  Facebook Google Twitter Vk Yandex Mail.ru

Crystavox - Tear Down The Wall - таба, видео

Печатать
Просмотров: 85
Уроки эстрадного вокала в Санкт-Петербурге
                                TEAR DOWN THE WALL
                                   by Crystavox
                               from The Bottom Line
                             transcribed by:  WAR AXE
LEGEND:
e|----------------------------------|   /  slide up       \  slide down
B|----------------------------------|   x  palm mute      *  finger mute
G|----------------------------------|   h  hammer-on      p  pull-off
D|----------------------------------|   ~  vibrato (with bar where noted)
A|----------------------------------|   b(12)  bend to (fret)
E|----------------------------------|   +  natural harmonic
   " " " " " " " " " " " " " " " "      =  "pinch" harmonic
'EACH " REPRESENTS A 16th               ^  staccato
  NOTE IN THE MEASURE'

   tempo=120  [DISTORTED]   tune down 1 whole step>  {w/delay 1st X only}
e|----------------------------------|----------------------------------|
B|----------------------------------|----------------------------------|
G|----------------------------------|----------------------------------|
D|----------------------------------|----------------------------------|
A|-7---------------7----------------|-7-----------7------/8---8--\7----|
E|-7---0---0---0---7---0---0---0----|-7---0---0---7------/8---8--\7----|
       x   x   x       x   x   x          x   x

e|----------------------------------|----------------------------------|
B|----------------------------------|----------------------------------|
G|----------------------------------|----------------------------------|
D|----------------------------------|----------------------------------|
A|-5---------------5----------------|-5---------------4-------5--------|
E|-5---0---0---0---5---0---0---0----|-5---0---0---0---4-------5--/7----|

e|----------------------------------|----------------------------------|
B|----------------------------------|----------------------------------|
G|----------------------------------|----------------------------------|
D|----------------------------------|----------------------------------|
A|-7---------------7----------------|-7-----------7------/8---8--\7----|
E|-7---0---0---0---7---0---0---0----|-7---0---0---7------/8---8--\7----|
       x   x   x       x   x   x          x   x

                                              _____________________
                                    &        / Don't play 1st X
e|----------------------------------|----------------------------------|
B|----------------------------------|----------------------------------|
G|----------------------------------|----------------------------------|
D|----------------------------------|----------------------------------|
A|-5---------------5----------------|-5---------------4-------5--------|
E|-5---0---0---0---5---0---0---0----|-5---0---0---0---4-------5--/7----|
       x   x   x       x   x   x          x
REPEAT through verses

 & (lead in to bridge)
e|----------------------------------||----------------------------------|
B|----------------------------------||----------------------------------|
G|----------------------------------||-2-------7-------5-------4---2----|
D|----------------------------------||-2-------7-------5-------4---2----|
A|-5---------------5-------4--------||-0---0---5---0---3---0---2---0----|
E|-5---0---0---0---5-------4--------||----------------------------------|
       x   x   x                          x       x       x

e|----------------------------------|----------------------------------|
B|----------------------------------|----------------------------------|
G|---------7-------5-------4--------|-2-------7-------5-------4---2----|
D|---------7-------5-------4--------|-2-------7-------5-------4---2----|
A|-0---0---5---0---3---0---2--------|-0---0---5---0---3---0---2---0----|
E|----------------------------------|----------------------------------|
   x           x       x                  x       x       x

  ___________________                 ___________________
 /   1st                             /    2nd
e|----------------------------------||----------------------------------||
B|----------------------------------||----------------------------------||
G|---------5--/7---7--\5---5--\4---.||---------2---------------7--------||
D|---------5--/7---7--\5---5--\4---.||---------2---------------7--------||
A|-0---0---3--/5---5--\3---3--\2----||-0-0-0-0-0-------3-3-3-3-5--------||
E|----------------------------------||----------------------------------||
   x                                   x x x x         x x x x

e||----------------------------------|----------------------------------|
B||----------------------------------|----------------------------------|
G||----------------------------------|----------------------------------|
D||----------------------------------|----------------------------------|
A||-----------------5~---------------|-----------------5~---------------|
E||-5-5-5-5-8~--------------8~-------|-5-5-5-5-8~--------------8~-------|
    x x x x                            x x x x

e|----------------------------------|----------------------------------||
B|----------------------------------|----------------------------------||
G|-2-------2-------7------5---------|-2-------2-------7-------5-------.||
D|-2-------2-------7------5---------|-2-------2-------7-------5-------.||
A|-0---0-0-0---0-0-5------3---------|-0---0-0-0---0-0-5-------3--------||
E|----------------------------------|----------------------------------||
   x   x x     x x                    x   x x

e|-----------|------------|--------------|
B|-----------|------------|--------------|
G|-----------|------------|--------------|
D|-3---------|(3)---------|(3)-----------|
A|-3---------|(3)---------|(3)-----------|
E|-1---------|(1)---------|(1)-----------|
  sustain for 3 measures                         REPEAT back to intro
 /PRE>     
Добавлено: 05.07.2013
Другие материалы по этой песне:
  • Аккорды и текст

Страница создана 05.07.2013
http://primanota.ru/crystavox/tear-down-the-wall-chords.htm
Привет, Гость.
Предлагаем пройти революционный курс по гитаре.
Подарок от PrimaNota.Ru, забирай!