PrimaNota.ru - самый крупный в мире бесплатный архив песенных текстов, аккордов, табулатур и нот


Crystal King - Ai Wo Torimodose - таба, видео

Регистрация Запомнить меня
Войти через:  Facebook Google Twitter Vk Yandex Mail.ru

Crystal King - Ai Wo Torimodose - таба, видео

Печатать
Просмотров: 193
                       
 By H4x0rl33                        


                            Intro
   Eb|--------------------------------------------------------------|
   Bb|--------------------------------------------------------------|
   Gb|--------------------------------------------------------------|
   Db|--------------------------------------------------------------|
   Ab|---7-5-7--7---0-0-2-3-5-5-3-2—-0—-2—-5------------------------|  
   Eb|--------------------------------------------------------------|

   Eb|--------------------------------------------------------------|
   Bb|--------------------------------------------------------------|
   Gb|--------------------------------------------------------------|
   Db|--------------------------------------------------------------|
   Ab|---7-5-7--7---0-0-2-3-5-5-3-2—-0—-2—-5--3-2-------------------|  
   Eb|--------------------------------------------------------------|






                                            2  Times

   Eb|--------------------------------------------------------------|
   Bb|--------------------------------------------------------------|
   Gb|--------------------------------------------------------------|
   Db|--------------------------------------------------------------|
   Ab|-7-5-7------7-5-7---5-5-5---3-3-3---5-5-5---------------------|
   Eb|-9-7-9------9-7-9---7-7-7---5-5-5---7-7-7---------------------|


                                          2 Times

   Eb|--------------------------------------------------------------|
   Bb|--------------------------------------------------------------|
   Gb|--------------------------------------------------------------|
   Db|--------------------------------------------------------------|
   Ab|---7-7-7-7----5-5-5-5----3-3-3-3----2-2-2-2-------------------|
   Eb|---9-9-9-9----7-7-7-7----5-5-5-5----4-4-4-4-------------------|


                                            2  Times

   Eb|--------------------------------------------------------------|
   Bb|--------------------------------------------------------------|
   Gb|--------------------------------------------------------------|
   Db|--------------------------------------------------------------|
   Ab|-7-5-7------7-5-7---5-5-5---3-3-3---5-5-5---------------------|
   Eb|-9-7-9------9-7-9---7-7-7---5-5-5---7-7-7---------------------|

                                          2 Times

   Eb|--------------------------------------------------------------|
   Bb|--------------------------------------------------------------|
   Gb|--------------------------------------------------------------|
   Db|--------------------------------------------------------------|
   Ab|---7-7-7-7----5-5-5-5----3-3-3-3----2-2-2-2-------------------|
   Eb|---9-9-9-9----7-7-7-7----5-5-5-5----4-4-4-4-------------------|


                                          2 Times

   Eb|--------------------------------------------------------------|
   Bb|--------------------------------------------------------------|
   Gb|--------------------------------------------------------------|
   Db|--------------------------------------------------------------|
   Ab|---7-7-7-7----5-5-5-5----3-3-3-3----2-2-2-2-/-14--------------|
   Eb|---9-9-9-9----7-7-7-7----5-5-5-5----4-4-4-4-------------------|










             These 2 are 1 Riff so Play the whole thing 2 times.
   Eb|--------------------------------------------------------------|
   Bb|--------------------------------------------------------------|
   Gb|--------------------------------------------------------------|
   Db|--------------------------------------------------------------|
   Ab|--14-14-14-14-12-12-12--\--7-7-10-10-15--14-14-9---10-5-12----|
   Eb|--------------------------------------------------------------|

   Eb|--------------------------------------------------------------|
   Bb|--------------------------------------------------------------|
   Gb|--------------------------------------------------------------|
   Db|--------------------------------------------------------------|
   Ab|--14-14-14-12-10---14-12-14-----------------------------------|
   Eb|--------------------------------------------------------------|




                                   Solo
   Eb|---12--/---15-14-12--10-12-/-17---19-19-17-\-12----12-12-8-8-8|
   Bb|--------------------------------------------------------------|
   Gb|--------------------------------------------------------------|
   Db|--------------------------------------------------------------|
   Ab|--------------------------------------------------------------|
   Eb|--------------------------------------------------------------|

   Eb|--7-7-7-------------------------------------------------------|
   Bb|--------------------------------------------------------------|
   Gb|--------------------------------------------------------------|
   Db|--------------------------------------------------------------|
   Ab|--------------------------------------------------------------|
   Eb|--------------------------------------------------------------|








                                            2  Times

   Eb|--------------------------------------------------------------|
   Bb|--------------------------------------------------------------|
   Gb|--------------------------------------------------------------|
   Db|--------------------------------------------------------------|
   Ab|-7-5-7------7-5-7---5-5-5---3-3-3---5-5-5---------------------|
   Eb|-9-7-9------9-7-9---7-7-7---5-5-5---7-7-7---------------------|


                                          2 Times

   Eb|--------------------------------------------------------------|
   Bb|--------------------------------------------------------------|
   Gb|--------------------------------------------------------------|
   Db|--------------------------------------------------------------|
   Ab|---7-7-7-7----5-5-5-5----3-3-3-3----2-2-2-2-------------------|
   Eb|---9-9-9-9----7-7-7-7----5-5-5-5----4-4-4-4-------------------|




             These 2 are 1 Riff so Play the whole thing 2 times.
   Eb|--------------------------------------------------------------|
   Bb|--------------------------------------------------------------|
   Gb|--------------------------------------------------------------|
   Db|--------------------------------------------------------------|
   Ab|--14-14-14-14-12-12-12--\--7-7-10-10-15--14-14-9---10-5-12----|
   Eb|--------------------------------------------------------------|

   Eb|--------------------------------------------------------------|
   Bb|--------------------------------------------------------------|
   Gb|--------------------------------------------------------------|
   Db|--------------------------------------------------------------|
   Ab|--14-14-14-12-10---14-12-14-----------------------------------|
   Eb|--------------------------------------------------------------|





Добавлено: 27.07.2012
Другие материалы по этой песне:

Страница создана 21.07.2012
http://primanota.ru/crystal-king/ai-wo-torimodose-chords.htm
Привет, Гость.
Предлагаем пройти революционный курс по гитаре.
Подарок от PrimaNota.Ru, забирай!