PrimaNota.ru - самый крупный в мире бесплатный архив песенных текстов, аккордов, табулатур и нот


Cryptopsy - Swine Of The Cross - текст песни, таба, видео

Регистрация Запомнить меня
Войти через:  Facebook Google Twitter Vk Yandex Mail.ru

Cryptopsy - Swine Of The Cross - текст песни, таба, видео

Печатать
Просмотров: 98
Album: Blasphemy Made Flesh
Song: Swine of the Cross


 
Code:
Suffixes for bend:
fb - full bend       hb - half bend
qb - quarter bend    t - tap bend
^ - Hold bend        r - release bend
~ - vibrato bend

Suffixes for harmonic:
ph - pinched harmonic      nh – natural harmonic
ah – artificial harmonic   hh – harp harmonic

Suffixes for mute:
. – palm mute            x – staccato mute
, - light palm mute      ; - heavy palm mute

Other:
/ - slide up to            \ - slide down to       
h - hammer on              p - pull off
‘ - sustained note         * - see comment
" - tremolo note           <> - Trill
L – left channel only      R – right channel only
= - 12 string guitar part

Tuning B E A D F# B

Riff 1 (0:01) play 4 times
                                 [x2]
|-----------------------------------|----------------------------|
|-----------------------------------|----------------------------|
|-----------------------------------|----------------------------|
|-----------------------------4-----|----------------------------|
|-77777777-5-3-2---77777777-6---6-7-|-55555555-3-2-----2----6----|
|----------------5------------------|--------------5-3-0----4----|
           . . . .          . . . .            . . . .

Riff 2a (0:29) play 5 times
|-----------------------------------|
|-----------------------------------|
|-----------------------------------|
|-----------------------------------|
|-----33332222--------555588887777--|
|-5555--------55553333--------------|

Riff 2b (0:41) play 4 times
|----------------------------------|
|----------------------------------|
|----------------------------------|
|----------------------------------|
|-----33332222--------555588887777-|
|-5555--------55553333-------------|

|----------------------------------|
|----------------------------------|
|----------------------------------|
|-------------------------7777-----|
|-----77775555--------7777----7777-|
|-5555--------88887777-------------|


Riff 3 (0:51) play 8 times
|-----------------------------------------|
|-----------------------------------------|
|-----------------------------------------|
|-9---------7---\6-------------------8----|
|-7----2----5---\4----8----7----9----6----|
|------0--------------6----5----7---------|
       ;              ;    ;

Riff 1 x 1/2 (1:10)
Riff 2a x 1 (1:24)
Riff 2b x 1/4 (1:31)

Riff 4 (1:34) play 8 times
[This is the main riff: You can add the staccato chords and other
fills yourself, its not that hard to figure out where a low B5 chord
goes.]
|---------------------------------------------------------|
|---------------------------------------------------------|
|---------------------------------------------------------|
|---------------------1100----------22--------------------|
|-----------------2222------------22------6666------22----|
|-0000333322223333--------33332222----0000----332233--55--|

Riff 5 (1:59) play 9 times
|-------------------------------|
|-------------------------------|
|-------------------------------|
|-----6-------------------------|
|-2-2-4--2-2---2-8--8--6-4-5\4--|
|-0-0----0-0---0-6--6--4-2-3\2--|
  . .          .       . .

Riff 1 x 1/2 (2:19)
Riff 4 x 1 (2:33)

Fill 1 (2:57) play 9 times
|------------------------------|
|------------------------------|
|------------------------------|
|-----6------------------------|
|-2-2-4--2-2---2-8--8----|
|-0-0----0-0---0-6--6----------|
  . .          .

End (3:00)
|-------------------------------|-----------------------------|
|-------------------------------|-----------------------------|
|-------------------------------|-----------------------------|
|-----6-------------------------|-----6-----------------------|
|-2-2-4--2-2---2-8--8--6-4-5\4--|-2-2-4--2-2---2-8--8--6-5-4--| 
|-0-0----0-0---0-6--6--4-2-3\2--|-0-0----0-0---0-6--6--4-3-2--|
  . .          .       . .        . .    . .   .       . . x
Добавлено: 29.06.2013
Другие материалы по этой песне:

Страница создана 22.03.2012
http://primanota.ru/cryptopsy/swine-of-the-cross-chords.htm
Привет, Гость.
Предлагаем пройти революционный курс по гитаре.
Подарок от PrimaNota.Ru, забирай!