PrimaNota.ru - самый крупный в мире бесплатный архив песенных текстов, аккордов, табулатур и нот


Cryptopsy - Slit Your Guts - текст песни, таба, видео

Регистрация Запомнить меня
Войти через:  Facebook Google Twitter Vk Yandex Mail.ru

Cryptopsy - Slit Your Guts - текст песни, таба, видео

Печатать
Просмотров: 238
SLIT YOUR GUTS - Cryptopsy - None So Vile

Rhythm Guitar Transcribed
Tuning (Low - High): C F Bb Eb G C

Palm Mute Notation:
pml - light pm;  pm - moderate pm;  pmh - heavy pm


A - Guitar 1       Play 7 Times
|------------------|
|-8-8-8-8-8-8-8-11-|
|------------------|
|------------------|
  pml..............
A - Guitar 2
|-7-7-7-7-7-7-7-10-|
|------------------|
|------------------|
|------------------|
  pml..............

Pause

B1 - Both Guitars
|-----------------------------------------------------|
|-------------------------------------------------8-8-|
|-----------------------------------------------------|
|-6-6-6-6-6-6-6-9-6-6-6-6-6-6-6-9-6-6-6-6-6-6-6-9-----|
  pm..............................................

B2 - Both Guitars
|-----------------------------------|
|-----------------8-8-----9-9-10-10-|
|-----------------------------------|
|-5-5-5-5-6-6-6-6-----7-7-----------|
  pm..............    pm..

Repeat (B1 + B2)

C1 - Guitar 1
|--------------------------------------------------------|
|----------------------------------------------------8-8-|
|--------------------------------------------------------|
|-6-6-6-6-6-6-6-9--6-6-6-6-6-6-6-9--6-6-6-6-6-6-6-9------|
  pm.................................................
C1 - Guitar 2
|-7-7-7-7-7-7-7-10-7-7-7-7-7-7-7-10-7-7-7-7-7-7-7-10-----|
|----------------------------------------------------8-8-|
|--------------------------------------------------------|
|--------------------------------------------------------|

C2 - Guitar 1
|-----------------------------------|
|-----------------8-8-----9-9-10-10-|
|-----------------------------------|
|-5-5-5-5-6-6-6-6-----7-7-----------|
  pm..............    pm..
C2 - Guitar 2
|---------7-7-7-7-------------------|
|-----------------8-8-----9-9-10-10-|
|-----------------------------------|
|-5-5-5-5-------------7-7-----------|
  pm......            pm..

Repeat (B1 + B2)
Repeat A x 4 (w/ Guitar 1 & Guitar 2)
Repeat A x 3 (w/ Guitar 1 only)
Repeat (B1 + B2) x 4
Repeat (C1 + C2)
Repeat (B1 + B2)

D1     (Under 1st Solo)
|-----------------------------------|
|-----------------------------------|
|-----10-10-7-7-4-4-7-7-4-4-5-5-5-5-|
|-7-7-------------------------------|
  pm................................

D2
|-----------------------------------|
|-----------------------------------|
|-----10-10-7-7-4-4-7-7-4-4-5-5/9---|
|-7-7-------------------------------|
  pm................................

Repeat D2

Fill
|------------------------------------------|
|-------------------7-7-5-5-4-4------------|
|-----10-10-7-7-4-4-------------5--2---2---|
|-7-7------------------------------0---0---|
  pm...............................pmh.....

E                      Play 2 Times
|---------------------------------|
|---------5-5-2-2-8-8-8-8-5-5-2-2-|
|-----2-2-------------------------|
|-3-3-----------------------------|
  pm..............................

Repeat D2 x 3  (Under 2nd Solo)

Fill
|-------------------------------------|
|---------------8-8-------------------|
|-----10-10-7-7-----2--3--4--5--4--3--|
|-7-7---------------0--1--2--3--2--1--|
  pm................pmh...............

F                     Play 10 Times
|---------------------------------|
|---------------------------------|
|-----------------7-7-7-7-6-6-----|
|-0-0-0-0-2-2-3-3-------------7-7-|
  pm..............................

G         p.h.                      Play 4 Times
|----------------------------------------------|
|----------5~----------------------------------|
|-3--4--5------3--2--3--2--3--4--6~---7--4--5--|
|-1--2--3------1--0--1--0--1--2----------------|
  pmh......    pmh...............

Repeat F

Fills           (between bass fills - not tabbed!)
|--------------|------|-------|---|--------------------|------|
|--------------|------|-------|---|--------------------|------|
|-3-3-3--2--2--|------|-2--2--|---|-2--2--3-3-3--2--2--|------|
|-1-1-1--0--0--|------|-0--0--|---|-0--0--1-1-1--0--0--|------|
  pmh..........         pmh...      pmh................

H              (1, 2 & 3)               (4)
|-------4-4-3--4--5---------|-------4-4-3--4--5--/8--\-|
|-------2-2-3--2--3---------|-------2-2-3--2--3--/6--\-|
|-2--2--2-2-1--2--3--3-3-3--|-2--2--2-2-1--2--3--/6--\-|
|-0--0---------------1-1-1--|-0--0---------------------|
  pmh...             pmh............

Repeat H x 3

I        (1)                 (2, 3 & 4)         (5)
|------------------|-----------------------|-----------|
|------------------|-----------------------|-----------|
|-2--2-------------|-3-3-3--2--2-----------|-3-3-3--2--|
|-0--0-------------|-1-1-1--0--0-----------|-1-1-1--0--|
  pmh...             pmh..........           pm........

Repeat (B1 + B2) x 3
Repeat (C1 + B2)
Repeat (B1 + B2)
Repeat A x 4 (w/Guitar 1 & Guitar 2)
Repeat A x 3 (w/Guitar 2 only)
Repeat E

E'
|---------------------------------|-----------------------------------|
|---------5-5-2-2-8-8-8-8-5-5-2-2-|---------5-5-2-2-------------------|
|-----2-2-------------------------|-----2-2---------2--3--4--5--4--3--|
|-3-3-----------------------------|-3-3-------------0--1--2--3--2--1--|
  pm................................................pmh...............

Pause

J  (Under 3rd Solo)                                    Play 8 Times
|-----------------------------------------------------------------|
|-------------------------8-8-9-9-6-6-6-6-8-8-9-9---------8-8-8-8-|
|-6-6-8-8-9-9-8-8-6-6-6-6-------------------------5-5-5-5---------|
|-----------------------------------------------------------------|
  pm.............................................................

Repeat H x 2
Repeat F
Repeat G


The End.

Erik
----------------------
erik_heino@hotmail.com
Добавлено: 22.03.2012
Другие материалы по этой песне:

Страница создана 15.03.2012
http://primanota.ru/cryptopsy/slit-your-guts-chords.htm
Привет, Гость.
Предлагаем пройти революционный курс по гитаре.
Подарок от PrimaNota.Ru, забирай!