PrimaNota.ru - самый крупный в мире бесплатный архив песенных текстов, аккордов, табулатур и нот


Cryptopsy - Shroud - текст песни, таба, видео

Регистрация Запомнить меня
Войти через:  Facebook Google Twitter Vk Yandex Mail.ru

Cryptopsy - Shroud - текст песни, таба, видео

Печатать
Просмотров: 101
Tuning: B E A D F# B
.    -   palm mute          / - slide up to
\    -   slide down to      ~ - vibrato
h    -   hammer on          b - Bend
p    -   pull off           Suffixes for bend
t    -   tap                f - full bend     h - half bend
ph   -   pinched harmonic   q - quarter bend t - tap bend
*    -   see comment        ^ - Hold bend     r release bend
x    -   Stuccatto          ~ - vibrato bend
,    -   slight palm mute   () - ghost note, sustained note
"    -   tremolo note       <> - Trill

nh – natural harmonic (lightly touch a string over the fret indicated
                       in TAB and pick)
d - downstroke
u - upstroke

Guitar 1 = Left channel
Guitar 2 = Right channel

Note: it’s hard to get into the rhythm and all the breaks
      (Hey, we’re talking about Cryptopsy...) so listen carefully

Intro both gtr.
|-------|-DRUMS-|-----------------|
|-------|-------|-----------------|
|-------|-------|-----------------|
|-------|-------|-----------------|
|-4--6--|-------|-3-6-3-6-3-6-3-6-|
|-2--4--|-------|-----------------|


RIFF 1: both gtr.(0:02)
 First / 11 times
|-------|---------|
|-------|---------|
|---887-|-----887-|
|-6-556-|-666-556-|
|-7-----|-777-----|
|-------|---------|

be carefull with this next part
the rhythm is tricky

 (0:11) both gtr.
|-RIFF-2------------------------------------------------------------------|
|-------------------------------------------------------------------------|
|-------------------------------------------------------------------------|
|-------------------------------------------------------------------------|
|-0-3-6-3-0-3-6-3-0-3-6-3-6-3-0-3-6-3-0-3-6-3-6-3-0-3-6-3-0-3-6-3-6-3-6-3-|
|-------------------------------------------------------------------------|

 -------------------------------------------------------------|
 -------------------------------------------------------------|
 -------------------------------------------------------------|
 -------------------------------------------------------------|
 -0-3-6-3-0-3-6-3-6-3-0-3-6-3-0-3-6-3-6-3-0-3-6-3-6-3-6-3-6-3-|
 -------------------------------------------------------------|
 (0:18) both / same as before only without the first two notes
 ---------------------------------------------------------------------|
 ---------------------------------------------------------------------|
 ---------------------------------------------------------------------|
 ---------------------------------------------------------------------|
 -6-3-0-3-6-3-0-3-6-3-6-3-0-3-6-3-0-3-6-3-6-3-0-3-6-3-0-3-6-3-6-3-6-3-|
 ---------------------------------------------------------------------|

 -----------------------------------------------------------------|
 -----------------------------------------------------------------|
 -----------------------------------------------------------------|
 -----------------------------------------------------------------|
 -0-3-6-3-0-3-6-3-6-3-0-3-6-3-0-3-6-3-6-3-0-3-6-3-6-3-6-3-6-3-6-3-|
 -----------------------------------------------------------------|

 (0:24) both / same figure as before
 ---------------------------------------------------------------------|
 ---------------------------------------------------------------------|
 ---------------------------------------------------------------------|
 ---------------------------------------------------------------------|
 -6-3-0-3-6-3-0-3-6-3-6-3-0-3-6-3-0-3-6-3-6-3-0-3-6-3-0-3-6-3-6-3-6-3-|
 ---------------------------------------------------------------------|

 -----------------------------------------------------------------|
 -----------------------------------------------------------------|
 -----------------------------------------------------------------|
 -----------------------------------------------------------------|
 -0-3-6-3-0-3-6-3-6-3-0-3-6-3-0-3-6-3-6-3-0-3-6-3-6-3-6-3-6-3-6-3-|
 -----------------------------------------------------------------|
(0:31) last time for gtr.2
 ---------------------------------------------------------------------|
 ---------------------------------------------------------------------|
 ---------------------------------------------------------------------|
 ---------------------------------------------------------------------|
 -6-3-0-3-6-3-0-3-6-3-6-3-0-3-6-3-0-3-6-3-6-3-0-3-6-3-0-3-6-3-6-3-6-3-|
 ---------------------------------------------------------------------|

 ---------------------------------------||
 ---------------------------------------||
 ---------------------------------------||
 ---------------------------------------||
 -0-3-6-3-0-3-6-3-6-3-0-3-6-3-0-3-6-3-6-||
 ---------------------------------------||
(0:31) last time for gtr.1
 ---------------------------------------------------------------------|
 ---------------------------------------------------------------------|
 ---------------------------------------------------------------------|
 ---------------------------------------------------------------------|
 -6-3-0-3-6-3-0-3-6-3-6-3-0-3-6-3-0-3-6-3-6-3-0-3-6-3-0-3-6-3-6-3-6---|
 ---------------------------------------------------------------------|

 ------------------------------------------------------||
 ------------------------------------------------------||
 ------------------------------------------------------||
 -7-10-13-10-7-10-13-10-13-10-7-10-13-10-7-10-13-10-13-||
 ------------------------------------------------------||
 ------------------------------------------------------||




Break (0:36)
only gtr.1      / both gtr.
|---------------|------------|
|----13-13\-----|------------|
|-14----14\-----|------------|
|---------------|-7--6--5----|
|---------------|-7--6--5----|
|---------------|------------|
                  . . .
RIFF 1: both gtr.(0:38)
 First / 5 times /       only 1 time
|-------|---------|-RIFF-3-------------------|
|-------|---------|--------------------------|
|---887-|-----887-|--------------------------|
|-6-556-|-666-556-|-6--------------33--22----|
|-7-----|-777-----|-7--555-2-3-2-----11---4--|
|-------|---------|--------------44-------2--|

RIFF 1: both gtr.(0:44)
 First / 5 times /       only 1 time
|-------|---------|-RIFF-3-------------------|
|-------|---------|--------------------------|
|---887-|-----887-|--------------------------|
|-6-556-|-666-556-|-6--------------33--22----|
|-7-----|-777-----|-7--555-2-3-2-----11---4--|
|-------|---------|--------------44-------2--|

(0:50) both gtr.
|-RIFF-2------------------------------------------------------------------|
|-------------------------------------------------------------------------|
|-------------------------------------------------------------------------|
|-------------------------------------------------------------------------|
|-0-3-6-3-0-3-6-3-0-3-6-3-6-3-0-3-6-3-0-3-6-3-6-3-0-3-6-3-0-3-6-3-6-3-6-3-|
|-------------------------------------------------------------------------|

 -------------------------------------------------------------|
 -------------------------------------------------------------|
 -------------------------------------------------------------|
 -------------------------------------------------------------|
 -0-3-6-3-0-3-6-3-6-3-0-3-6-3-0-3-6-3-6-3-0-3-6-3-6-3-6-3-6-3-|
 -------------------------------------------------------------|
 (0:57) last for both
 ---------------------------------------------------------------------|
 ---------------------------------------------------------------------|
 ---------------------------------------------------------------------|
 ---------------------------------------------------------------------|
 -6-3-0-3-6-3-0-3-6-3-6-3-0-3-6-3-0-3-6-3-6-3-0-3-6-3-0-3-6-3-6-3-6-3-|
 ---------------------------------------------------------------------|

 -------------------------------------------|
 -------------------------------------------|
 -------------------------------------------|
 -------------------------------------------|
 -0-3-6-3-0-3-6-3-6-3-0-3-6-3-0-3-6-3-6-3-0-|
 -------------------------------------------|



(1:02) both gtr. (double bass part)
|-Break-before-going-into-RIFF-4----------|
|-----------------------------------------|
|-----------------------------------------|
|---------------------------------2-2-2-2-|
|-6-3-6-3-6-3-6-3-6-3-6-3-6-3-6---2-2-2-2-|
|---------------------------------0-0-0-0-|
                                  . . . .
(1:05) both gtr. 2 times
|-RIFF-4----------------------------------------------|
|-----------------------------------------------------|
|-----------------------------------------5-------5---|
|-----------------2-2-2-2-----------------5-------5---|
|-6-3-6-3-6-3-6---2-2-2-2-5-2-5-2-5-2-5---3---2---3---|
|-----------------0-0-0-0---------------------0--1----|
                  . . . .
 -----------------------------||
 -----------------------------||
 -----------------5-------5---||
 -----------------5-------5---||
 -5-2-5-2-5-2-5---3---2---3---||
 ---------------------0--1----||
(1:15)
|-Break-------------|stop|
|-------------------|----|
|-------------------|----|
|-----------------2-|----|
|-6-3-6-3-6-3-6---2-|----|
|-----------------0-|----|
                  .
 (1:16) both gtr.
|-RIFF-2------------------------------------------------------------------|
|-------------------------------------------------------------------------|
|-------------------------------------------------------------------------|
|-------------------------------------------------------------------------|
|-0-3-6-3-0-3-6-3-0-3-6-3-6-3-0-3-6-3-0-3-6-3-6-3-0-3-6-3-0-3-6-3-6-3-6-3-|
|-------------------------------------------------------------------------|

 -----------------------------------------------------------|
 -----------------------------------------------------------|
 -----------------------------------------------------------|
 -----------------------------------------------------------|
 -0-3-6-3-0-3-6-3-6-3-0-3-6-3-0-3-6-3-6-3-0-3-6-3-6-3-6-3-6-|
 -----------------------------------------------------------|

    only gtr.1    / both gtr.
 -Break-----------|--------------|stop|
 -----------------|--------------|----|
 -----------------|--------------|----|
 -----------------|--------------|----|
 -3-3-4---6-2-5---|6---2---3-3-5-|----|
 -1-1-4---4-0-5---|4---0---1-1-5-|----|
  . .     . .      .   .   . .

(1:25) both gtr.
|-RIFF-5--------------------------------------------|
|---------66665555----------------------------------|
|-----------------55554444--------------------------|
|-33333333----------------777766\-------------------|
|-----------------------------------3-3-4---6-2-5---|
|-----------------------------------1-1-4---4-0-5---|
                                    . .     . .
(1:29) both gtr.
|-RIFF-6----------------------------|
|-----------------------------------|
|-----------------------------------|
|-5-2-6-2-7-2-6-2-------------------|
|-5-2-6-2-7-2-6-2---3-3-4---6-2-5---|
|-3-0-4-0-5-0-4-0---1-1-4---4-0-5---|
  .   .   .   .     . .     . .

(1:32) gtr. 1
|-RIFF-5---------------------------|
|---------66665555-----------------|
|-----------------55554444---------|
|-33333333----------------77776666-|
|----------------------------------|
|----------------------------------|
(1:32) gtr. 2
|-RIFF-5---------------------------|
|---------66665555-----------------|
|-----------------5555444455554444-|
|-33333333-------------------------|
|----------------------------------|
|----------------------------------|

(1:34) both gtr.
|-RIFF-7------------------------------------------|
|-----------------------101010109999--------------|
|-------------99----9999------------101010109999--|
|-777710101010--1010------------------------------|
|-------------------------------------------------|
|-------------------------------------------------|
 -------------------------------------------------|
 -----------------88886666------------------------|
 ---------77--7777--------99999999----------------|
 -55559999--99------------------------------------|
 -------------------------------------------------|
 -------------------------------------------------|

(1:38) gtr. 1
|-RIFF-7---------------------------------------------|
|----------------------------------------------------|
|-------------99----9999101010109999-----------------|
|-777710101010--1010----------------1212121210101010-|
|----------------------------------------------------|
|----------------------------------------------------|
(1:38) gtr. 2
|-RIFF-7-----------------------------------------|
|-----------------------101010109999-------------|
|-------------99----9999------------101010109999-|
|-777710101010--1010-----------------------------|
|------------------------------------------------|
|------------------------------------------------|

(1:40) both gtr.
 ----------------------------------|
 -------------6666------------5555-|
 ---------5555------------4444-----|
 -----7777------------6666---------|
 -8888------------7777-------------|
 ----------------------------------|


(1:43) gtr. 1
|-RIFF-7---------------------------------------------|
|----------------------------------------------------|
|-------------99----9999101010109999-----------------|
|-777710101010--1010----------------1212121210101010-|
|----------------------------------------------------|
|----------------------------------------------------|

 ----------------------------------|
 -----------------88886666---------|
 ---------77--7777--------99999999-|
 -55559999--99---------------------|
 ----------------------------------|
 ----------------------------------|

 -----------------------88887777-------------|
 -------------------------------101010109999-|
 -------------99----9999---------------------|
 -777710101010--1010-------------------------|
 --------------------------------------------|
 --------------------------------------------|

 ----------------------------------||
 -------------66665555-------------||
 ---------5555--------4444---------||
 -----7777----------------6666-----||
 -8888------------------------7777-||
 ----------------------------------||

(1:43) gtr. 2
|-RIFF-7------------------------------------------|
|-----------------------101010109999--------------|
|-------------99----9999------------101010109999--|
|-777710101010--1010------------------------------|
|-------------------------------------------------|
|-------------------------------------------------|
 -------------------------------------------------|
 -----------------88886666------------------------|
 ---------77--7777--------99999999----------------|
 -55559999--99------------------------------------|
 -------------------------------------------------|
 -------------------------------------------------|

 ------------------------------------------------|
 -----------------------101010109999-------------|
 -------------99----9999------------101010109999-|
 -777710101010--1010-----------------------------|
 ------------------------------------------------|
 ------------------------------------------------|

 ----------------------------------||
 -------------66665555-------------||
 ---------5555--------4444---------||
 -----7777----------------6666-----||
 -8888------------------------7777-||
 ----------------------------------||



(1:51) gtr. 1
|-RIFF-6------------------------------|
|-------------------------------------|
|---------------------------------11\-|
|---2---2---2---2---2---2---2-----11\-|
|---2---2---2---2---2---2---2------9\-|
|---0---0---0---0---0---0---0---------|

(1:51) gtr. 2
|-RIFF-6------------------------------|
|-------------------------------------|
|---------------------------------11\-|
|-5---6---7---6---5---6---7---6---11\-|
|-5---6---7---6---5---6---7---6----9\-|
|-3---4---5---4---3---4---5---4-------|
  .   .   .   .   .   .   .   .

(1:56) both gtr. = 2 times
|-RIFF-6------------|
|-------------------|
|-------------------|
|-5-2-6-2-7-2-6-2---|
|-5-2-6-2-7-2-6-2---|
|-3-0-4-0-5-0-4-0---|
  .   .   .   .

(2:00) gtr. 1
|-RIFF-6----------------------------|
|-----------------------------------|
|-----------------------------------|
|-5-2---2---2---2---2---2---2---2---|
|-5-2---2---2---2---2---2---2---2---|
|-3-0---0---0---0---0---0---0---0---|

(2:00) gtr. 2
|-RIFF-6----------------------------|
|-----------------------------------|
|-----------------------------------|
|-5---6---7---6---5---6---7---6-----|
|-5---6---7---6---5---6---7---6-----|
|-3---4---5---4---3---4---5---4-----|
  .   .   .   .   .   .   .   .
(2:05) both gtr. = 4 times
|-RIFF-6------------|
|-------------------|
|-------------------|
|-5-2-6-2-7-2-6-2---|
|-5-2-6-2-7-2-6-2---|
|-3-0-4-0-5-0-4-0---|
  .   .   .   .

(2:14) both gtr. = 3 times
|-RIFF-8------------------------------|
|-----------------------8\5-----------|
|----------------------11\8-----------|
|-------------3-----------------------|
|-6655-----------------------6--------|
|-------1--/2-----4/8----------8-\-5--|




(2:20) both gtr.
|-RIFF-8--------------------------------------------------|
|-----------------------8\5-----------------8\5-----------|
|----------------------11\8----------------11\8-----------|
|-------------3-------------------------------------------|
|-6655-----------------------6-------------------6--------|
|-------1--/2-----4/8----------8-\-5--4/8----------8-\-5--|

(2:23) both gtr.
|-RIFF-8------------------------------|
|-----------------------8\5-----------|
|----------------------11\8-----------|
|-------------3-----------------------|
|-6655-----------------------6--------|
|-------1--/2-----4/8----------8-\-5--|

(2:25) both gtr.
|-RIFF-8--------------------------------------------------|
|-----------------------8\5-----------------8\5-----------|
|----------------------11\8----------------11\8-----------|
|-------------3-------------------------------------------|
|-6655-----------------------6-------------------6--------|
|-------1--/2-----4/8----------8-\-5--4/8----------8-\-5--|

(2:28) both gtr.
|-RIFF-8-----------------------------------------------||
|-----------------------8\5----------------------------||
|----------------------11\8----------------------------||
|-------------3------------------------------------3---||
|-6655-----------------------6---------6655------------||
|-------1--/2-----4/8----------8-\-5---------1--/2-----||

(2:31) both gtr. = 4 times
|-RIFF-6------------|
|-------------------|
|-------------------|
|-5-2-6-2-7-2-6-2---|
|-5-2-6-2-7-2-6-2---|
|-3-0-4-0-5-0-4-0---|
  .   .   .   .

(2:40) gtr. 1
|-RIFF-6------------|
|-------------------|
|-------------------|
|-5-2---2---2---2---|
|-5-2---2---2---2---|
|-3-0---0---0---0---|
  .
(2:40) gtr. 2
|-RIFF-6------------|
|-------------------|
|-------------------|
|-5-2-6-2-7-2-6-2---|
|-5-2-6-2-7-2-6-2---|
|-3-0-4-0-5-0-4-0---|
  .   .   .   .




(2:42) both gtr.
|-------------------------------------------------|
|-------------------------------------------------|
|-------------------------------------------------|
|-5-2---2---2---2-7-2---2---2---2-6-2---2---2---2-|
|-5-2---2---2---2-7-2---2---2---2-6-2---2---2---2-|
|-3-0---0---0---0-5-0---0---0---0-4-0---0---0---0-|
  .               .               .

(2:49) gtr. 1
|-RIFF-9--------------------------|
|----------8---8\-----------------|
|-------9----9--------------------|
|-5/10--------------------------4-|
|-------------------3---3-4---5-4-|
|-------------------3---3-4---5-4-|
                    .   . .   .

(2:49) gtr. 2
|-RIFF-9--------------------------|
|---------------------------------|
|----------9---9\-----------------|
|-2/7--10----10-----------------4-|
|-------------------3---3-4---5-4-|
|-------------------3---3-4---5-4-|
                    .   . .   .


(2:51) both gtr. = 4 times
|-RIFF-8------------------------------|
|-----------------------8\5-----------|
|----------------------11\8-----------|
|-------------3-----------------------|
|-6655-----------------------6--------|
|-------1--/2-----4/8----------8-\-5--|


(2:59) gtr. 1
|-RIFF-7-------------------------------------------------------|
|--------------------------------------------------------------|
|-101010109999--------------------------------88886666---------|
|-------------1212121210101010--------77--7777--------99999999-|
|-----------------------------55559999--99---------------------|
|--------------------------------------------------------------|

 ----------------------------------------------------|
 ----------------------------------------------------|
 -------------99----9999101010109999-----------------|
 -777710101010--1010----------------1212121210101010-|
 ----------------------------------------------------|
 ----------------------------------------------------|

 -------------------------------------------------|
 -------------6666------------5555----------------|
 ---------5555------------4444--------------------|
 -----7777------------6666------------------------|
 -8888------------7777----------------------------|
 -------------------------------------------------|
 -------------------------------------------------|
 -----------------------101010109999--------------|
 -------------99----9999------------101010109999--|
 -777710101010--1010------------------------------|
 -------------------------------------------------|
 -------------------------------------------------|

 ----------------------------------|
 -----------------88886666---------|
 ---------77--7777--------99999999-|
 -55559999--99---------------------|
 ----------------------------------|
 ----------------------------------|

 -----------------------88887777-------------|
 -------------------------------101010109999-|
 -------------99----9999---------------------|
 -777710101010--1010-------------------------|
 --------------------------------------------|
 --------------------------------------------|

 --------------------------------------------------|
 ---------------------101010109999-----------------|
 -----------------9999------------7777-------------|
 ---------10101010--------------------9999---------|
 -12121212--------------------------------11111111-|
 --------------------------------------------------|

 --------------------------------------------------||
 ---------------------10101010----------------9999-||
 -----------------9999--------------------7777-----||
 ---------10101010--------------------9999---------||
 -12121212--------------------11111111-------------||
 --------------------------------------------------||

(2:59) gtr. 2
|-RIFF-7------------------------------------------------------|
|-101010109999----------------------------88886666------------|
|-------------101010109999--------77—7777---------99999999--|
|-------------------------55559999--99------------------------|
|-------------------------------------------------------------|
|-------------------------------------------------------------|

 ------------------------------------------------|
 -----------------------101010109999-------------|
 -------------99----9999------------101010109999-|
 -777710101010--1010-----------------------------|
 ------------------------------------------------|
 ------------------------------------------------|

 ----------------------------------|
 -------------6666------------5555-|
 ---------5555------------4444-----|
 -----7777------------6666---------|
 -8888------------7777-------------|
 ----------------------------------|

 ------------------------------------------------|
 -----------------------101010109999-------------|
 -------------99----9999------------101010109999-|
 -777710101010--1010-----------------------------|
 ------------------------------------------------|
 ------------------------------------------------|

 -------------------------------------------------|
 -----------------88886666------------------------|
 ---------77--7777--------99999999----------------|
 -55559999--99------------------------------------|
 -------------------------------------------------|
 -------------------------------------------------|
 -------------------------------------------------|
 -----------------------101010109999--------------|
 -------------99----9999------------101010109999--|
 -777710101010--1010------------------------------|
 -------------------------------------------------|
 -------------------------------------------------|

 ------------------------------------------------------------------||
 -------------66665555------------------------6666------------5555-||
 ---------5555--------4444----------------5555------------4444-----||
 -----7777----------------6666--------7777------------6666---------||
 -8888------------------------77778888------------7777-------------||
 ------------------------------------------------------------------||

(3:17) both gtr.
|-RIFF-10--------------------------------------|
|----------------------------------------------|
|----------------------------------------------|
|-----6---------------6-------------6----------|
|-3-2-4-----6-3-2-3-2-4---6-2-4-3-2-4---6-2-5--|
|-1-0-4-----4-1-0-1-0-4---4-0-2-1-0-4---4-0-3--|
  . .       . . . . .     . . . . .     . . .

(3:21) both gtr.
|-RIFF-4b---------------------------------------------|
|-----------------------------------------------------|
|-----------------------------------------5-----------|
|-----------------2-2-2-2-----------------------------|
|-6-3-6-3-6-3-6---2-2-2-2-5-2-5-2-5-2-5---3---2---3---|
|-----------------0-0-0-0---------------------0---1---|
                  . . . .
 -----------------------------------------------------||
 -----------------------------------------------------||
 -----------------5-----------------------------------||
 ---------------------------------------------2-2-2-2-||
 -5-2-5-2-5-2-5---3---2---3---6-3-6-3-6-3-6---2-2-2-2-||
 ---------------------0---1-------------------0-0-0-0-||
                                              . . . .
(3:28) both gtr.
|-RIFF-3----------------|
|-----------------------|
|-----------------------|
|-------------33--22----|
|-555-2-3-2-----11---4--|
|-----------44-------2--|

(3:29) both gtr.
|-RIFF-11-------------------------|
|---------------------------------|
|---------------------------------|
|---5-4-------------5-4-----------|
|-2-6-5-6-2-5-6-2-2-6-5-6-2-5-6-2-|
|-0-----4-0-3-4-0-0-----4-0-3-4-0-|


(3:32) both gtr.
|-RIFF-3b----------------------------------|
|------------------------------------------|
|------------------------------------------|
|-------------33--22----22-3-3-------------|
|-555-2-3-2-----11---------1-1----2-3-2255-|
|-----------44------2222-------44----------|

(3:35) both gtr.
|-RIFF-11-------------------------|
|---------------------------------|
|---------------------------------|
|---5-4-------------5-4-----------|
|-2-6-5-6-2-5-6-2-2-6-5-6-2-5-6-2-|
|-0-----4-0-3-4-0-0-----4-0-3-4-0-|
RHYTHM UNDER SOLO
(3:38) 4 times           &        last time
|-RIFF-3-----------------|-------------------------|stop|
|------------------------|-------------------------|----|
|------------------------|-------------------------|----|
|-------------33--22-----|-------------33----------|----|
|-555-2-3-2-----11-------|-555-2-3-2-----11111-4-2-|----|
|-----------44------2222-|-----------44--------2-0-|----|

SOLO (3:38)
|--------------------------161413--------1517191715-----|
|--------------------------------15151719----------1917-|
|-------------4------8----------------------------------|
|-----------5---5-10---10-------------------------------|
|----222263---------------------------------------------|
|-\4----------------------------------------------------|


 -16p13-------13h--------12h-22t13h\11--21t11\10--20t10\8-|
 -------16------------------------------------------------|
 ----------13-----13--------------------------------------|
 --------------------15h----------------------------------|
 ---------------------------------------------------------|
 ---------------------------------------------------------|

 -1715171915h17-20t11\10--19t10\8--16t8\7--15t--6bh----|
 ------------------------------------------------------|
 ------------------------------------------------------|
 ------------------------------------------------------|
 ------------------------------------------------------|
 ------------------------------------------------------|

 ----------sweep-------------------|
 ----------1215--------------------|
 --------13----13------------------|
 -12---15--------12—(12)-\-------|
 ----------------------------------|
 ----------------------------------|

(3:47)
both gtr.= 8 times      last time
|-RIFF-12---------|---------------------|
|-----------------|---------------------|
|-----------------|---------------------|
|-----------------|---------------------|
|-5-6-2-2-5-4-3-2-|-5-6-2-2-5-4-3-2-5-6-|
|-3-4-0-0-6-5-4-0-|-3-4-0-0-6-5-4-0-3-4-|

ending both gtr.
 -----------------------------------------||
 -----------------------------------------||
 -----------------------------------------||
 -------------------------------4bh--\----||
 -0-3-6-3-0-3-6-3-0-3-6-3-6-0-0-5bh--\----||
 -----------------------------------------||


End.
Добавлено: 12.09.2013
Другие материалы по этой песне:
  • Аккорды и текст

Страница создана 12.09.2013
http://primanota.ru/cryptopsy/shroud-chords.htm
Привет, Гость.
Предлагаем пройти революционный курс по гитаре.
Подарок от PrimaNota.Ru, забирай!