PrimaNota.ru - самый крупный в мире бесплатный архив песенных текстов, аккордов, табулатур и нот


Cryptopsy - Serial Messiah - текст песни, таба, видео

Регистрация Запомнить меня
Войти через:  Facebook Google Twitter Vk Yandex Mail.ru

Cryptopsy - Serial Messiah - текст песни, таба, видео

Печатать
Просмотров: 110
Уроки эстрадного вокала в Санкт-Петербурге
SERIAL MESSIAH – Cryptopsy – Blasphemy Made Flesh

Rhythm Guitar Transcribed on Bass
Tuning (Low - High): B E A D F# B

Intro Sample (w/Footsteps of Satan)


A'
|----------------------------------|----------------------------------|
|----------------------------------|-------------------------6-----6--|
|-55555555----------------44----44-|-55555555--------8-8-7-7-4-8-7-4--|
|---------5544444466665555--6655---|---------554444446-6-5-5---6-5----|
| pm................................................................  |
| backing guitar                                                                            |
|----------------------------------|----------------------------------|
|----------------------------------|-7-----------------------6-----6--|
|----------------------------------|-5-------6-------8-8-7-7-4-8-7-4--|
|----------------------------------|---------4-------6-6-5-5---6-5----|
                                     pm      pm      pm.............


A1 (both guitars)               Play 3 Times
|----------------------------------|
|----------------------------------|
|-55555555----------------44----44-|
|---------5544444466665555--6655---|
 pm...............................

A2
|----------------------------------|
|-------------------------6-----7--|
|-55555555--------8-8-7-7-4-8-7-4--|
|---------554444446-6-5-5---6-5----|
 pm...............................


Repeat A1 x 2


B'                                     Guitar 1 - Left Channel
|------------------------------------------------------------|
|------------------------------------------------------------|
|-2------5-/-6---6---3---5---2-------7-/-8---2-------5-/-6---|
|-0------3-/-4---4---1---3---0-------5-/-6---0-------3-/-4---|
|                                      Guitar 2 - Right Channel
|------------------------------------------------------------|
|------------------------------------------------------------|
|----------------------------2-------7-/-8---2-------5-/-6---|
|----------------------------0-------5-/-6---0-------3-/-4---|


B (both guitars)                                 Play 11 Times
|------------------------------------------------------------|
|------------------------------------------------------------|
|-2-------5-/-6---6---3---5---2-------7-/-8---2------5-/-6---|
|-0-------3-/-4---4---1---3---0-------5-/-6---0------3-/-4---|


Fill
|-----------------|
|-----------------|
|-2-------2-------|
|-0-------0-------|
  pmh     pmh

 
C                              Play 4 Times
|-----------------------------------------|
|-------5---------7-----------------------|
|-5-7-8---8-7-5-7--/5-----------5----/7---|
|-----------------------8-6---8---8~------|
| pm....  pm......                        |
| harmony                                               |
|-----------------------------------------|
|-------5---------------------------------|
|-5-7-8---8-7-5-7-5------------------/4---|
|------------------/6---5-3---5-6-5~------|
  pm....  pm......


C' (under guitar solo)         Play 4 Times
|-----------------------------------------|
|-------5---------------------------------|
|-5-7-8---8-7-5-7-5-------------------4444|
|------------------/666655333355665555----|
  pm....  pm......  pml...................


Guitar Solo:
|-------------------13----12-13-12h13h15--13-12----------|
|-------------15-------15-----------------------15-14~---|
|-10----14-10----14--------------------------------------|
|----12--------------------------------------------------|
|--------------------------------------------------------|
|--------------------------------------------------------|
     pm    pm

                                       p.h. (slight)
|-------------------13----12-13-15------------|
|-------------15-------15-----------/12-11~---|
|-10----14-10----14---------------------------|    etc....
|----12---------------------------------------|
|---------------------------------------------|
|---------------------------------------------|
     pm    pm

Repeat A2, A1 x 3, A2, A1, A2


D                        Play 8 Times
|-----------------------------------|
|-----------------------------------|
|-7-7-8-8-7-7-------------------8-8-|
|-------------8-8-7-7-10-10-8-8-----|
  pm................................

Repeat B x 8

E (Outro Riff)
|--------------------------------------------------------|
|-????????????????---------------------------------------|
|--------------------------------------------------------|
|--------------------------------------------------------|
  pm....


The End.
Добавлено: 14.07.2013
Другие материалы по этой песне:

Страница создана 14.04.2012
http://primanota.ru/cryptopsy/serial-messiah-chords.htm
Привет, Гость.
Предлагаем пройти революционный курс по гитаре.
Подарок от PrimaNota.Ru, забирай!