PrimaNota.ru - самый крупный в мире бесплатный архив песенных текстов, аккордов, табулатур и нот


Cryptopsy - Screams go Unheard - текст песни, таба, видео

Регистрация Запомнить меня
Войти через:  Facebook Google Twitter Vk Yandex Mail.ru

Cryptopsy - Screams go Unheard - текст песни, таба, видео

Печатать
Просмотров: 125
Tuning B E A D F# B


Didgeridoo Intro (0:00 - 2:14)


 Riff 1 (2:15)
   Gtrs. 1&2
||---------------------|-----------------------------------------|
||---------------------|.--------------------.|
||------0h8-------0h7--|-----------------------------------------|
||-0h7--0h6--0h8--0h5--|.0h7--0h8-------------------------------.|
||-0h5-------0h6-------|-0h5--0h6--0h8--0h4--0h8--0h4--0h8--0h6--|
||---------------------|-----------0h6--0h2--0h6--0h2--0h6--0h4--|
                         .    .    .    .    .    .    .    .
 Riff 1 (Cont.)
  Gtrs. 1&2
 |--------------------------||
 |--------------------------||
 |--------------------------||
 |-0h7--0h8-----------------||
 |-0h5--0h6---0h8------0h4--||
 |------------0h6------0h2--||
   .    .     .        .



 Riff 2 (2:31)
   Gtrs. 1&2                                                            2x
||---------------------------------------------------------------------------------|
||.-------------------------------------------------------------------------------.|
||------0h8-------0h7-------0h8-------0h7-------0h8-------0h7----------------------|
||.0h7--0h6--0h8--0h5--0h7--0h6--0h8--0h5--0h7--0h6--0h8--0h5--0h7--0h8-----------.|
||-0h5-------0h6-------0h5-------0h6-------0h5-------0h6-------0h5--0h6--0h8--0h4--|
||-----------------------------------------------------------------------0h6--0h2--|
                                                               .    .    .    .
 Riff 2 (Cont.)
   Gtrs. 1&2
 |---------------------------------------------------------------------------------|
 |---------------------------------------------------------------------------------|
 |------0h8-------0h7-------0h8-------0h7-------0h8-------0h7----------------------|
 |-0h7--0h6--0h8--0h5--0h7--0h6--0h8--0h5--0h7--0h6--0h8--0h5--0h7--0h8-------0h6--|
 |-0h5-------0h6-------0h5-------0h6-------0h5-------0h6-------0h5--0h6--0h8--0h4--|
 |-----------------------------------------------------------------------0h6-------|
                                                               .    .    .    .
 Riff 2 (Cont.)
   Gtrs. 1&2
 |---------------------------------------------------------------------------------||
 |---------------------------------------------------------------------------------||
 |------0h8-------0h7-------0h8-------0h7-------0h8-------0h7----------------------||
 |-0h7--0h6--0h8--0h5--0h7--0h6--0h8--0h5--0h7--0h6--0h8--0h5--0h7--0h8-------6----||
 |-0h5-------0h6-------0h5-------0h6-------0h5-------0h6-------0h5--0h6--0h8--4----||
 |-----------------------------------------------------------------------0h6-------||
                                                               .    .    .
 Riff 3 (2:50)
   Gtr. 1
||-----4/5-5/6---------------------5/6-4/5-----------------|
||-----4/5-5/6---------------------5/6-4/5-----------------|
||-----------------5/6\4~----------------------5/6\4~------|
||-----------------5/6\4~--6/7-----------------5/6\4~--6/7-|
||-6/7---------6/7-------4-4/5-6/7---------6/7-------4-4/5-|
||-4/5---------4/5-------2-----4/5---------4/5-------2-----|
||                       .                           .     |
|| Gtr. 2                                                  |
||---------------------------------5/6-4/5-----------------|
||---------------------------------5/6-4/5-----------------|
||---------------------------------------------5/6\4~------|
||-----------------5/6-----6/7-----------------5/6\4~--6/7-|
||-4---------------3/4---4-4/5-6/7---------6/7-------4-4/5-|
||-2---------------------2-----4/5---------4/5-------2-----|
   .                     .                           .

Riff 3 (Cont.)
  Gtrs. 1&2                                              4x
|-----4/5-5/6---------------------5/6-4/5------------------|
|.----4/5-5/6---------------------5/6-4/5-----------------.|
|-----------------5/6\4~----------------------5/6\4~-------|
|.----------------5/6\4~--6/7-----------------5/6\4~--6/7-.|
|-6/7---------6/7-------4-4/5-6/7---------6/7-------4-4/5--|
|-4/5---------4/5-------2-----4/5---------4/5-------2------|
                        .                           .

Riff 3 (Cont.)
  Gtrs. 1&2                                  ******
|-----4/5-5/6------------------------------------xx----|
|.----4/5-5/6-----------------------------------xx-----|
|-----------------5/6\4~-----------------------xx------|
|.----------------5/6\4~--6/7-5~----------8---xx-------|
|-6/7---------6/7-------4-4/5-5~--------9-6--xx--------|
|-4/5---------4/5-------2-------777-887-7--------------|
                        .       ... ... . .
*Mute strings at 4th fret with your left hand, while raking strings
 behind the mute position with your right hand.



 Riff 4 (3:16)
   Gtr. 1
||-------------------------------------------------------||
||---------------------------------------3h5-4h5-6p5-4h5-||
||-------------------------------------------------------||
||-----------------------2-5-3-6-4-5-3-5-----------------||
||-3-4---4-7-5-8-6-7-5-7---------------------------------||
||-1-2---------------------------------------------------||
||   .   . . . . . . . . . . . . . . . .                 ||
|| Gtr. 2                                                ||
||-------------------------------------------------------||
||-------------------------------------------------------||
||---------------------------------------3h5-4h5-6p5-4h5-||
||-------------------------------------------------------||
||-3-4---4-7-5-8-6-7-5-7-4-7-5-8-6-7-5-7-----------------||
||-1-2---------------------------------------------------||
     .   . . . . . . . . . . . . . . . .
 Riff 1A (3:20)
   Gtrs. 1&2                             4x
||-----------------------------------------||
||.---------------------------------------.||
||-----------------------------------------||
||.0h7--0h8-------------------------------.||
||-0h5--0h6--0h8--0h4--0h8--0h4--0h8--0h6--||
||-----------0h6--0h2--0h6--0h2--0h6--0h4--||
   .    .    .    .    .    .    .    .



 Riff 5 (3:28)
   Gtr. 1                                                               7x
||-------------------------------------------------------------------------||
||.-----------------------------------------------------------------------.||
||------------------------------------------------||
||.-----------------------------------------------------------------------.||
||-222---222---222---222---2222-2-2222-2-2222-2-2222-2---------------------||
||-000---000---000---000---0000-0-0000-0-0000-0-0000-0---------------------||
||   .     .     .     .      . .    . .    . .    . .                     ||
|| Gtr. 2                                                                  ||
||-------------------------------------------------------------------------||
||.-----------------------------------------------------------------------.||
||<-------<----Same-Rhythm-As-Guitar-1---->----->-||
||.-----------------------------------------------------------------------.||
||-222---222---222---222---nhnhnhnh-nh-nhnhnhnh-nh-nhnhnhnh-nh-nhnhnhnh-nh-||
||-000---000---000---000---17171717-17-17171717-17-17171717-17-17171717-17-||
     .     .     .     .



 Riff 5A (4:06)*
   Gtrs. 1&2                                   4x
||-----<9><9>------------------------------------||
||.--<9>----<9>---------------------------------.||
||-<9>--------<9>--------------------------------||
||.---------------------------------------------.||
||------------------2222-2-2222-2-2222-2-2222-2--||
||------------------0000-0-0000-0-0000-0-0000-0--||
                       . .    . .    . .    . .
 * <9> = Natural Harmonic



 Riff 6 (4:16)
  Gtrs. 1&2                                                   4x
||--------------------------------------------------------------||
||.------------------------------------------------------------.||
||--------------------------------------------------------------||
||.-------------------6-----------------------------6----------.||
||-------------4---------4-3-2-6-------------4---------4-3-2-6--||
||-3bq~--0-----2----6----2-1-0-4-3bq~--0-----2----6----2-1-0-4--||
                         . . . .                       . . . .
  * bq = Bend Quarter step
 Riff 3A (4:34)
   Gtr. 1
||---------------------------------4/5-5/6-----------------|
||---------------------------------4/5-5/6-----------------|
||---------------------------------------------5/6\4~------|
||-------------0~~~~~~~~~~~~~~~----------------5/6\4~--6/7-|
||-------------0~~~~~~~~~~~~~~~6/7---------6/7-------4-4/5-|
||-3bq~--0---------------------4/5---------4/5-------2-----|
||                                                   .     |
|| Gtr. 2                                                  |
||---------------------------------------------------------|
||---------------------------------------------------------|
||-------------0~~~~~~~~~~~~~~~~~~~~~~~~~~~~~~~~~~~~~~~~~~-|
||-------------0~~~~~~~~~~~~~~~~~~~~~~~~~~~~~~~~~~~~~~~~~~-|
||---------------------------------------------------------|
||-3bq~--0-------------------------------------------------|

Riff 3A (Cont.)
  Gtrs. 1&2
|-----5/6-4/5------------------------------|
|-----5/6-4/5------------------------------|
|-----------------5/6\4-------4/5\3-5/6\4--|
|-----------------5/6\4-4/5\3-4/5\3-5/6\4--|
|-6/7---------6/7-------4/5\3--------------|
|-4/5---------4/5--------------------------|

Riff 3A (Cont.)
  Gtrs. 1&2                                              4x
|-----5/6-4/5---------------------4/5-5/6------------------||
|.----5/6-4/5---------------------4/5-5/6-----------------.||
|-----------------5/6\4~----------------------5/6\4~-------||
|.----------------5/6\4~--6/7-----------------5/6\4~--6/7-.||
|-6/7---------6/7-------4-4/5-6/7---------6/7-------4-4/5--||
|-4/5---------4/5-------2-----4/5---------4/5-------2------||
                        .                           .



 Riff 7 (5:01)
   Gtr. 1
||--------------------------|-------------------------------------|
||--------------------------|-------------------------------------|
||-7~-----------------------|---------7777------------------------|
||-5~-----------------------|-9999------------9999----------------|
||-5~-----------8\--9-6-5-6-|-----8888----7777----8888-5/8-8\6-9~-|
||------777-7-7-8\--7-4-3-4-|--------------------------3/6-6\4-7~-|
||                      . .                                       |
|| Gtr. 2                                                         |
||--------------------------|-------------------------------------|
||--------------------------|-------------------------------------|
||-7~-----------------------|---------4444------------------------|
||-5~-----------------------|-6666------------6666----------------|
||-5~-----------8\--9-6-5-6-|-----5555----4444----5555-5/8-8\6-9~-|
||------777-7-7-8\--7-4-3-4-|--------------------------3/6-6\4-7~-|
                        . .
 Riff 7 (Cont.)
   Gtrs. 1&2
 |-------------------------------------------------------------------------|
 |-------------------------------------------------------------------------|
 |-------------------------------------------------------------------------|
 |-------------------------------------------------------------------------|
 |-5/8-8\6-5/9-9\8-5/8-8\6-5/9-9\8-9-6-5-6-5/8-8\6-5/9-9\8-5/8-8\6-9-6-5-6-|
 |-3/6-6\4-3/7-7\6-3/6-6\4-3/7-7\6-7-4-3-4-3/6-6\4-3/7-7\6-3/6-6\4-7-4-3-4-|
                                       . .                             . .
Riff 7 (Cont.)
 Gtrs. 1&2
|-------------------------------------|
|.------------------------------------|
|---------4444------------------------|
|.6666------------6666----------------|
|-----5555----4444----5555-5/8-8\6-9~-|
|--------------------------3/6-6\4-7~-|

Riff 7 (Cont.)
  Gtrs. 1&2                                                            2x
|-------------------------------------------------------------------------|
|------------------------------------------------------------------------.|
|-------------------------------------------------------------------------|
|------------------------------------------------------------------------.|
|-5/8-8\6-5/9-9\8-5/8-8\6-5/9-9\8-9-6-5-6-5/8-8\6-5/9-9\8-5/8-8\6-9-6-5-6-|
|-3/6-6\4-3/7-7\6-3/6-6\4-3/7-7\6-7-4-3-4-3/6-6\4-3/7-7\6-3/6-6\4-7-4-3-4-|
                                      . .                             . .
Riff 7 (Cont.)
  Gtr. 1
|-----------------------------------------------------------------------------||
|-----------------------------------------------------------------------------||
|---------7777----------------------------------------------------------------||
|-9999------------9999--------------------------------------------------------||
|-----8888----7777----8888-5/8-8\6-9~-5/8-8\6-5/9-9\8-5/8-8\6-5/9-9\8-9-6-5-6-||
|--------------------------3/6-6\4-7~-3/6-6\4-3/7-7\6-3/6-6\4-3/7-7\6-7-4-3-4-||
|                                                                         . . ||
| Gtr. 2                                                                      ||
|-----------------------------------------------------------------------------||
|-----------------------------------------------------------------------------||
|---------4444----------------------------------------------------------------||
|-6666------------6666--------------------------------------------------------||
|-----5555----4444----5555-5/8-8\6-9~-5/8-8\6-5/9-9\8-5/8-8\6-5/9-9\8-9-6-5-6-||
|--------------------------3/6-6\4-7~-3/6-6\4-3/7-7\6-3/6-6\4-3/7-7\6-7-4-3-4-||
                                                                          . .



 Riff 2A (5:31)
   Gtr. 1
||---------------------|
||---------------------|
||---------------------|
||---------------------|
||---------------------|
||---------------------|
||                     |
|| Gtr. 2              |
||---------------------|
||---------------------|
||------0h8-------0h7--|
||-0h7--0h6--0h8--0h5--|
||-0h5-------0h6-------|
||---------------------|

Riff 2A (Cont.)
  Gtrs. 1&2                                                                    2x
|---------------------------------------------------------------------------------||
|.-------------------------------------------------------------------------------.||
|------0h8-------0h7-------0h8-------0h7-------0h8-------0h7----------------------||
|.0h7--0h6--0h8--0h5--0h7--0h6--0h8--0h5--0h7--0h6--0h8--0h5--0h7--0h8-----------.||
|-0h5-------0h6-------0h5-------0h6-------0h5-------0h6-------0h5--0h6--0h8--0h4--||
|-----------------------------------------------------------------------0h6--0h2--||
                                                              .    .    .    .
 Riff 7A (5:42)
  Gtrs. 1&2
||---------------------------------------------|
||---------------------------------------------|
||-----------------4444------------------------|
||---------6666------------6666----------------|
||-9-6-5-6-----5555----4444----5555-5/8-8\6-9~-|
||-7-4-3-4--------------------------3/6-6\4-7~-|
       . .
 Riff 7A (Cont.)
   Gtrs. 1&2
 |-------------------------------------------------------------------------|
 |-------------------------------------------------------------------------|
 |-------------------------------------------------------------------------|
 |-------------------------------------------------------------------------|
 |-5/8-8\6-5/9-9\8-5/8-8\6-5/9-9\8-9-6-5-6-5/8-8\6-5/9-9\8-5/8-8\6-9-6-5-6-|
 |-3/6-6\4-3/7-7\6-3/6-6\4-3/7-7\6-7-4-3-4-3/6-6\4-3/7-7\6-3/6-6\4-7-4-3-4-|
                                       . .                             . .
 Riff 7A (Cont.)
   Gtr. 1
 |-------------------------------------|
 |-------------------------------------|
 |---------7777------------------------|
 |-9999------------9999----------------|
 |-----8888----7777----8888-5/8-8\6-9~-|
 |--------------------------3/6-6\4-7~-|
 |                                     |
 | Gtr. 2                              |
 |-------------------------------------|
 |-------------------------------------|
 |---------4444------------------------|
 |-6666------------6666----------------|
 |-----5555----4444----5555-5/8-8\6-9~-|
 |--------------------------3/6-6\4-7~-|

Riff 7A (Cont.)
  Gtrs. 1&2
|---------------------------------------------------------||
|---------------------------------------------------------||
|---------------------------------------------------------||
|---------------------------------------------------------||
|-5/8-8\6-5/9-9\8-5/8-8\6-5/9-9\8-9-6-5-6-5/8-8\6-5/9-9\8-||
|-3/6-6\4-3/7-7\6-3/6-6\4-3/7-7\6-7-4-3-4-3/6-6\4-3/7-7\6-||
                                      . .
 Riff 6A (5:57)
   Gtr. 1
||-------------------------------------------------------------|
||-------------------------------------------------------------|
||-------------------------------------------------------------|
||--------------------6----------------------------------------|
||-------------4---------4-3-2-6-----------------------4-3-2-6-|
||-3bq~--0-----2----6----2-1-0-4-----------------------2-1-0-4-|
||                       . . . .                       . . . . |
|| Gtr. 2                                                      |
||-------------------------------------------------------------|
||-------------------------------------------------------------|
||-------------------------------------------------------------|
||--------------------6-----------------------------6----------|
||-------------4---------4-3-2-6-------------4---------4-3-2-6-|
||-------------2----6----2-1-0-4-3bq~--0-----2----6----2-1-0-4-|
                         . . . .                       . . . .
 Riff 6A (Cont.)
  Gtrs. 1&2                                                   5x
 |--------------------------------------------------------------||
 |.------------------------------------------------------------.||
 |--------------------------------------------------------------||
 |.-------------------6-----------------------------6----------.||
 |-------------4---------4-3-2-6-------------4---------4-3-2-6--||
 |-3bq~--0-----2----6----2-1-0-4-3bq~--0-----2----6----2-1-0-4--||
                         . . . .                       . . . .
  * bq = Bend Quarter step



 Break (6:26)
   Gtr. 1
||-------------------AAAAAAAAAAAAAAAAAAAAAAAAAAAHHHHHHHHHHHHHHHHHHH!!!!!-||
||-------------------AAAAAAAAAAAAAAAAAAAAAAAAAAAHHHHHHHHHHHHHHHHHHH!!!!!-||
||-------------------AAAAAAAAAAAAAAAAAAAAAAAAAAAHHHHHHHHHHHHHHHHHHH!!!!!-||
||-<-Bass-Guitar->---AAAAAAAAAAAAAAAAAAAAAAAAAAAHHHHHHHHHHHHHHHHHHH!!!!!-||
||-------------------AAAAAAAAAAAAAAAAAAAAAAAAAAAHHHHHHHHHHHHHHHHHHH!!!!!-||
||-3~~~~~~0~~~~~~~---AAAAAAAAAAAAAAAAAAAAAAAAAAAHHHHHHHHHHHHHHHHHHH!!!!!-||
 Riff 8 (6:29)
   Gtr. 1
||------------------------------------------------------------------------|
||------------------------------------------------------------------------|
||------------------------------------------------------------------------|
||-8888888877778-7-6666666666667777---------------------------------------|
||---------------------------------8-------3-----8\7-6-------------6/7----|
||---------------------------------666666665555556\5-444444444444444/5555-|
||                                                                        |
|| Gtr. 2                                                                 |
||------------------------------------------------------------------------|
||------------------------------------------------------------------------|
||------------------------------------------------------------------------|
||-----------------------------------------3------------------------------|
||-----------------------------6/7-8-------3-----8\7-6-------------6/7----|
||-66666666555555554444444444444/5-6-------5-----6\5-4-------------4/5----|

Riff 8 (Cont.)
  Gtr. 1
|------------------------------------------------------------------------------------|
|------------------------------------------------------------------------------------|
|------------------------------------------------------------------------------------|
|-----------------------------------------------------3------------------------------|
|------------------------------4---7---3---8--8-------3-----8\7-6-------------6/7----|
|-666666665555555522222222222222--55--11--66--6-------5-----6\5-4-------------4/5----|
|                             .   .   .   .                                          |
| Gtr. 2                                                                             |
|------------------------------------------------------------------------------------|
|------------------------------------------------------------------------------------|
|------------------------------------------------------------------------------------|
|-8888888877777777444444444444-------------------------------------------------------|
|------------------------------4---3---3---8--8-------3-----8\7-6-------------6/7----|
|-666666665555555522222222222222--55--11--66--666666665555556\5-444444444444444/5555-|
                              .   .   .   .
Riff 8 (Cont.)
  Gtr. 1
|------------------------------------------------------------------------------------|
|------------------------------------------------------------------------------------|
|------------------------------------------------------------------------------------|
|-8888888877777777444444444444------------------------------------------------6/7777-|
|------------------------------4---3---3---8--8-----8\7-----8\7-6--------------------|
|-666666665555555522222222222222--55--11--66--6-----6\5-----6\5-444444444444444/5555-|
|                             .   .   .   .                                          |
| Gtr. 2                                                                             |
|------------------------------------------------------------------------------------|
|-----------------------------------------------------------------------------9/10---|
|-----------------------------------------------------------------------------8/9----|
|-----------------------------------------------------------------------------6/7----|
|------------------------------4---7---3---8--8-----8\7-----8\7-6--------------------|
|-666666665555555522222222222222--55--11--66--6-----6\5-----6\5-4--------------------|
                              .   .   .   .
Riff 8 (Cont.)
  Gtr. 1
|------------------------------------------------------------------------------------|
|----------------------------------------------------/10----11109-------------9/10---|
|----------------------------------------------------/9-----109-8-------------8/9----|
|-8888888877777777444444444444-----------------------/7-----8-7-6-------------6/7----|
|------------------------------4---7---3---8--8--------------------------------------|
|-666666665555555522222222222222--55--11--66--6--------------------------------------|
|                             .   .   .   .                                          |
| Gtr. 2                                                                             |
|------------------------------------------------------------------------------------|
|------------------------------------------------------------------------------------|
|------------------------------------------------------------------------------------|
|------------------------------------------------------------------------------------|
|------------------------------4---7---3---8--8-----8-7-----8\7-6-------------6/7----|
|-666666665555555522222222222222--55--11--66--6666666-5555556\5-444444444444444/5555-|
                              .   .   .   .
Riff 8 (Cont.)
  Gtr. 1
|------------------------------------------------------------------------------------|
|------------------------------------------------------------------------------------|
|------------------------------------------------------------------------------------|
|------------------------------------------------------------------------------------|
|------------------------------4---7---3---5--8-----8\7-----8\7-6-------------6-7----|
|-666666665555555522222222222222--55--11--33--6-----6\5-----6\5-4-------------4-5----|
|                             .   .   .   .                                          |
| Gtr. 2                                                                             |
|------------------------------------------------------------------------------------|
|------------------------------------------------------------------------------------|
|------------------------------------------------------------------------------------|
|-8888888877777777444444444444-------------------------------------------------------|
|------------------------------4---7---3---5--8-----8\7-----8\7-6-------------6-7----|
|-666666665555555522222222222222--55--11--33--6-----6\5-----6\5-4-------------4-5----|
                              .   .   .   .
Riff 8 (Cont.)
  Gtr. 1
|-------------------------------------------------------------------------||
|-------------------------------------------------------------------------||
|-------------------------------------------------------------------------||
|-------------------------------------------------------------------------||
|-8---------------------------4-------------------------------------------||
|-6---------------------------2-------------------------------------------||
|                                                                         ||
| Gtr. 2                                                                  ||
|-------------------------------------------------------------------------||
|-------------------------------------------------------------------------||
|-------------------------------------------------------------------------||
|-------------------------------------------------------------------------||
|-8---------------------------4-------------------------------------------||
|-6---------------------------2-------------------------------------------||

End.
Добавлено: 04.10.2013
Другие материалы по этой песне:
  • Аккорды и текст

Страница создана 03.07.2012
http://primanota.ru/cryptopsy/screams-go-unheard-chords.htm
Привет, Гость.
Предлагаем пройти революционный курс по гитаре.
Подарок от PrimaNota.Ru, забирай!