PrimaNota.ru - самый крупный в мире бесплатный архив песенных текстов, аккордов, табулатур и нот


Cryptopsy - Dead And Dripping - текст песни, таба, видео

Регистрация Запомнить меня
Войти через:  Facebook Google Twitter Vk Yandex Mail.ru

Cryptopsy - Dead And Dripping - текст песни, таба, видео

Печатать
Просмотров: 118
DEAD AND DRIPPING - Cryptopsy - None So Vile

Tuning (Low - High): B E A D F# B
pml - light pm;  pm - moderate pm;  pmh - heavy pm


A1
|---------------------------------------------------------|
|---------------------------------------------------------|
|-0-0-0-0-3-3-3-3-6-6-6-6-5-5-5-5-3-3-3-3-2-2-2-2-3-3-3-3-|
|---------------------------------------------------------|
  pm......................................................

A2
|---------------------------------------------------------|
|-----------------------------------------6-6-6-6-9-9-9-9-|
|-0-0-0-0-3-3-3-3-6-6-6-6-5-5-5-5-3-3-3-3-----------------|
|---------------------------------------------------------|
  pm......................................................

Repeat (A1 + A2)

B1
|---------------------------------------------------------|
|---------------------------------------------------------|
|---------------------------------------------------------|
|-0-0-0-0-3-3-3-3-6-6-6-6-5-5-5-5-3-3-3-3-2-2-2-2-3-3-3-3-|
  pm......................................................

B2
|---------------------------------------------------------|
|---------------------------------------------------------|
|-----------------------------------------6-6-6-6-9-9-9-9-|
|-0-0-0-0-3-3-3-3-6-6-6-6-5-5-5-5-3-3-3-3-----------------|
  pm......................................................

Repeat (B1 + B2)
Repeat (A1 + A2) x 2
Repeat (B1 + B2) x 2

C                  Play 16 Times
|-------------------|
|-------------4h5p4-|
|-----2---3---------|
|-0-----------------|
  pm..........

Repeat (A1 + A2) x 2
Repeat (B1 + B2) x 4

D                                                                          Play 4 Times
|---------------------------------|---------------------------------|
|-----------------4-4-4-4-4-4-4-4-|-----------------4-4-4-4-3-3-3-3-|
|---------------------------------|---------------------------------|
|-1-1-1-1-2-2-2-2-----------------|-1-1-1-1-2-2-2-2-----------------|
  pm..............pml.............  pm..............pml.............

Repeat D x 8 (with D')

D'
|-----------------5-5-5-5-5-5-5-5-|-----------------5-5-5-5-4-4-4-4-|
|---------------------------------|---------------------------------|
|---------------------------------|---------------------------------|
|-1-1-1-1-2-2-2-2-----------------|-1-1-1-1-2-2-2-2-----------------|
  pm..............                  pm..............

Repeat C x 8
Repeat (B1 + B2) x 3
Repeat B1

B2'
|---------------------------------------------------------|
|-----------------------------------------8---8---11--11--|
|-----------------------------------------6---6---9---9---|
|-0-0-0-0-3-3-3-3-6-6-6-6-5-5-5-5-3-3-3-3-----------------|
  pm......................................................

E                                    Play 4 Times
|-----------------------------------------------|
|-2----4------8----5------4----5----4----3------|
|-2----4------6----3------2----3----2----3------|
|-0----2------6----3------2----3----2----1------|
       pmh...                            pmh....

Repeat D (w/D') x 4
Repeat C x 8
Repeat (A1 + A2) x 2
Repeat (B1 + B2) x 2
Repeat C x 4
Repeat (B1 + B2) x 4

F1
|---------------------------------|---------------------------------|
|---------------------------------|---------------------------------|
|---------------------3-3-2-2-5-5-|---------3-3-2-2-6-6-5-5---------|
|-0-0-0-0-1-1-4-4-3-3-------------|-1-1-0-0-----------------4-4-3-3-|
  pml...............................................................

(Hint: "F" stands for FAST !!)

F2
|---------------------------------|---------------------------------|
|---------------------------------|---------5---4---8---7-----------|
|---------------------3-3-2-2-5-5-|-3---2---3---2---6---5---6---5---|
|-0-0-0-0-1-1-4-4-3-3-------------|-1---0-------------------4---3---|
  pml...............................pm..............................

Repeat F1 x 2 ,  F2   &   F1 x 2

F3
|---------------------------------|---------------------------------|
|---------------------------------|---------------------7-----------|
|---------------------3-3-2-2-5-5-|---------3-3-2-2-6-6-5---6---5---|
|-0-0-0-0-1-1-4-4-3-3-------------|-1-1-0-0-----------------4---3---|
  pml...................................................pm..........

Repeat F1 x 2

Outro
|---------------------------------|---------------------------------|----|
|---------------------5---4---7---|---------------------------------|----|
|-2---2---3---6---5---3---2---5---|---------3-3-2-2-6-6-5-5---------|-2--|
|-0---0---1---4---3---------------|-1-1-0-0-----------------4-4-3-3-|-0--|
  pm................................pml.................................


The End.

Erik
----------------------
erik_heino@hotmail.com
Добавлено: 13.04.2012
Другие материалы по этой песне:

Страница создана 28.02.2012
http://primanota.ru/cryptopsy/dead-and-dripping-chords.htm
Привет, Гость.
Предлагаем пройти революционный курс по гитаре.
Подарок от PrimaNota.Ru, забирай!