PrimaNota.ru - самый крупный в мире бесплатный архив песенных текстов, аккордов, табулатур и нот


Cryptopsy - Cold Hate Warm Blood - текст песни, таба, видео

Регистрация Запомнить меня
Войти через:  Facebook Google Twitter Vk Yandex Mail.ru

Cryptopsy - Cold Hate Warm Blood - текст песни, таба, видео

Печатать
Просмотров: 120
here the tab from cryptopsy - cold hate warm blood!!


.  - palm mute           /  - slide up to
  - slide down to       ~  - vibrato
h  - hammer on           b  - Bend
p  - pull off            Suffixes for bend
t  - tap                 f  - full bend    h - half bend
ph - pinched harmonic    q  - quarter bend t - tap bend
*  - see comment         ^  - Hold bend    r release bend
x  - Stuccatto           ~  - vibrato bend
,  - slight palm mute    () - ghost note, sustained note
"  - tremolo note        <> - Trill

Tuning 5 half steps down: B-E-A-D-Gb-B

Guitar one = left  channel
Guitar two = right channel

Intro:
|-Drum-&-Bass-|
|-------------|
|-------------|
|-------------|
|-------------|
|-------------|
Note: FOR ALL THE CLEAN PARTS:
      ALWAYS SLIDE WITH BOTH FINGERS AND DO NOT CHANGE
      THEM DURING THESE PARTS(OR YOU'LL KILL THE SLIDE EFFECT)
      AND DON'T PICK THE NOTES IN THE BRACKETS BECAUSE
      THESE NOTES ONLY SHOWS YOU WHERE YOU HAVE TO SLIDE TO...

Both guitars 1 time (CLEAN tone)
|-RIFF-A1----------------------------------------------------|
|------------------------------------------------------------|
|-------5-(4)----4-/(5)-5-/(7)-7----/-(9)--9-------7---------|
|----7----(6)-6----/(7)-7-/(9)----9-/(10)----10-(9)----------|
|-0----------------------------------------------------------|
|------------------------------------------------------------|

 -RIFF-A2---------------------------------------------|
 -----------------------------------------------------|
 -----10-----7-/-----9----5-/(7)-7-----5-4-5----------|
 -12------9----/-10----10-7-/(9)----9-(7)--7----------|
 -----------------------------------------------------|
 -----------------------------------------------------|

both guitars                 2 times
|-RIFF-B1---------------------------------------------------------------|
|-----------------------------------------------------------------------|
|-----------------------------------------------------------------------|
|-----5---4---5---7----9---7~---------10---7----9---5---7-------5-------|
|-----7---6---7---9---10---9~---------12---9---10---7---9---7-6-7---8---|
|-0-0---0---0---0---0----0--------0-0----0---0----0---0---0---------6---|
  . .   .   .   .   .    .        . .    .   .    .   .   . . .

 -RIFF-B2---------------------------------------------------------------|
 -----------------------------------------------------------------------|
 -----5---4---5---7----9---7~---------10---7----9---5---7---4---5-------|
 -----7---6---7---9---10---9~---------12---9---10---7---9---6---7-------|
 -0-0---0---0---0---0----0--------0-0----0---0----0---0---0---0-----3---|
 -------------------------------------------------------------------1---|
  . .   .   .   .   .    .        . .    .   .    .   .   .   .

both guitars              6 times
|-RIFF-C--------------------------------------------------------|
|---------------------------------------------------------------|
|-8p7p5p0-----------------8p7p5p0-------------------------------|
|-----------6p5p3p0-----------------6p5p3p0---------------------|
|---------------------3-----------------------6p5p3p0---3---2---|
|---------------------1---------------------------------1---0---|
                      .                                 .   .
break / both guitars
|------------------------------------------------|
|------------------------------------------------|
|------------------------------------------------|
|-----5---4---5---7----9---2-------5-------------|
|-----7---6---7---9---10---0--3----3--6----9--3--|
|-0-0---0---0---0---0----0----1-------4----7--1--|
  . .   .   .   .   .    .
again RIFF B2 = 1 time
again RIFF B1 = 1 times

break / both guitars
|---------------------------------|
|---------------------------------|
|-----5---4---5---7----9---7~-----|
|-----7---6---7---9---10---9~-----|
|-0-0---0---0---0---0----0--------|
|---------------------------------|
  . .   .   .   .   .    .
again RIFF A2 = 1 time (CLEAN)

guitar one=2 times D1/2 times D2/ 1 times D1
|-RIFF-D1------------------------------|
|---------------------------------9999-|
|--------------------------------------|
|---------888889860-6p5p0-7-0-6666-----|
|--------------------------------------|
|-66664444-----------------------------|
                            .
guitar two only playing D2=5 times (S=SWEEP)
|------------------------------------------|
|------------------------------------------|
|---------------------------------10101010-|
|---------888889860-6----------------------|
|--------------------5--8-----7777---------|
|-66664444------------6-6------------------|
                    SSS .
guitar one last time (sixth time) immediately jumping into next part
|--------------------------------------RIFF-E1------------------------------|
|---------------------------------------------------------------------------|
|---------------------------------1010--------------------------------------|
|---------888889860-6-------------------------------------------------------|
|--------------------5--8-----7777-----8--3------------------------875------|
|-66664444------------6-6--------------6--1---------------------------987---|
                    SSS .                  .


guitar two last time (sixth time) immediately jumping into next part
|--------------------------------------RIFF-E1----------------------------|
|-------------------------------------------------------------------------|
|---------------------------------1010------------------------------------|
|---------888889860-6----------------------10-----------------------------|
|--------------------5--8-----7777-----8---8---11--12---8---9---5---6-----|
|-66664444------------6-6--------------6-------9---10---6---7---3---4-----|
                    SSS .              .   .   .   .    .   .   .   .
Both guitars                2 time
|-RIFF-E1----------------------------------------------------------|
|------------------------------------------------------------------|
|------------------------------------------------------------------|
|-----10------------------------------10---------------------------|
|-8---8---11--12---8---9---5---6------8---11--12---8---9---5---6---|
|-6-------9---10---6---7---3---4----------9---10---6---7---3---4---|
  .   .   .   .    .   .   .   .      .   .   .    .   .   .   .
guitar one                    1 time
|-RIFF-E2----------------------------------------------------------------|
|------------------------------------------------------------------------|
|------------------------------------------------------------------------|
|---10-10-------------------------------10-------------------------------|
|8-8-8-8-11----12----8---9---5-5-6-6-8---8---11-11-12-12-8-8-9-9--5---6--|
|6-6------9----10----6---7---3-3-4-4-6--------9--9—10-10-6-6-7-7--3---4--|
 . . . .  .    .     .   .   . . . . .   . .  .  . .  .  . . . .  .   .
guitar two
|-RIFF-E2-----------------------------------------------------------------|
|-------------------------------------------------------------------------|
|-------------------------------------------------------------------------|
|---10----------------------------------10-10-----------------------------|
|8---8---11-11-12-12-8-8-9-9-5---6---8-8-8-8-11----12----8---9----5-5-6-6-|
|6--------9—-9-10-10-6-6-7-7-3---4---6-6------9----10----6---7----3-3-4-4-|
 .   .    .  . .  .  . . . . .   .   . . . .  .    .     .   .    . . . .

both guitars                  1 time
|-RIFF-E3----------------------------------------------------------------|
|------------------------------------------------------------------------|
|------------------------------------------------------------------------|
|----10-10--------------------------------10-10--------------------------|
|-8-8-8-8-11-11-12-12-8888999955556666-8-8-8—8-11-11-12-12-8888999955556-|
|-6-6------9--9-10-10-6666777733334444-6-6------9--9-10-10-6666777733334-|
  . . . .  .  . .  .                   . . . .  .  . .  .

|-RIFF-E3----------------------------------------------------------------|
|------------------------------------------------------------------------|
|------------------------------------------------------------------------|
|----10-10--------------------------------10-10--------------------------|
|-----8-8-11-11-12-12-8888999955556666-8-8-8—8-11-11-12-12-8888999955556-|
|----------9--9-10-10-6666777733334444-6-6------9--9-10-10-6666777733334-|
      . .  .  . .  .                   . . . .  .  . .  .

only guitar one/only guitar two/ both guitars...
|-----RIFF-C----|---------------|-----------------------------------------|
|---------------|---------------|-----------------------------------------|
|-----8p7p5p0---|---------------|-----8p7p5p0-----------------------------|
|---------------|-----6p5p3p0---|---------------6p5p3p0-------------------|
|---------------|---------------|-3-----------------------6p5p3p0---3---2-|
|---------------|---------------|-1---------------------------------1---0-|
                                  .                                 .   .

again RIFF C = 3 times


guitar two        1 time
|-RIFF-F----------------------------------------|
|-------4--/--7---------4--/--7--/--13----------|
|-------5--/--8---------5--/--8--/--14----------|
|-4-4-------------4-4---------------------------|
|-6-6-------------6-6---------------------------|
|-----------------------------------------------|
  . .             . .
guitar one (chords)
|-----------------------------------------------|
|-----------------------------------13----------|
|-----------------------------------14----------|
|-4-4-------------4-----------------------------|
|-6-6-------------6-----------------------------|
|-----------------------------------------------|
  .               .
both guitars       4 times
|-RIFF-F------------------------------------------|
|-------4--/--7---------4--/--7--/--13----10------|
|-------5--/--8---------5--/--8--/--14----11------|
|-4-4-------------4-4-----------------------------|
|-6-6-------------6-6-----------------------------|
|-------------------------------------------------|
  . .             . .
both guitars  5 times (fast)
|-RIFF-G-----------------------------|
|-1-/-4-/-7--4-/-7-/-10-/-13--10-----|
|-2-/-5-/-8--5-/-8-/-11-/-14--11-----|
|------------------------------------|
|------------------------------------|
|------------------------------------|

SOLO:
again RIFF B2 = 1 time
again RIFF B1 = 1 time
again RIFF B2 = 1 time
again RIFF B1 = 1 time

(under solo)          2 times
|-RIFF-H--------------------------------------------|
|---------------------------------------------------|
|---------------------------------------------------|
|-5---7---9---5---7---9---10---7---10---9---7---9---|
|---7---7---7---7---9---9----9---9----6---6---6---6-|
|---------------------------------------------------|
    .   .   .   .   .   .    .   .    .   .   .   .
 --------------------------3-------------------|
 -------------1------------3-------------------|
 -------------0------------0-------------------|
 -2-----------2--------0-------2---3---4---9---|
 -2-----3-0-3-3--------2-------3~--4~--5~----7-|
 -0--------------------------------------------|
        . . .                                .

both guitars                 1 time                      ()=only guitar two
|-RIFF-I--------------------------------------------------------------------|
|-----------------------------------------------------------------55555555--|
|----------------------------------------------------------------(55555555--|
|-5555777799995555777799991010101077771010101099997777999955555555----------|
|-7777777777777777999999999999999999996666666666666666666677777777----------|
|---------------------------------------------------------------------------|


------------------------------------------------------------------|
------------------------------------------------------------------|
------------------------------------------------------------------|
-222222222222222222222222--------2222222222222222-----------------|
-3333333333333333333333332222222233333333333333335555555555555555-|
-------------------------22222222----------------7777777777777777-|

again RIFF A1&A2 = 1 time (CLEAN)

(play chord with distortion & RIFF a3 again CLEAN)    1 time
|---|-RIFF-A3----------------------------------------------------------|
|---|------------------------------------------------------------------|
|---|------------------------------------------------------------------|
|---|-------5-(4)----4-/(5)----5-/(7)----7-/-(9)-----9-(7)----7--------|
|-2-|----7----(6)-6----/(7)-7----/(9)-9----/(10)-10----(9)-9-----------|
|-0-|-0----------------------------------------------------------------|
  .
 ------------------------------------------------------|
 ------------------------------------------------------|
 ------------------------------------------------------|
 -----10-----7-/-----9-----5-/----7-----5-4-5----------|
 -12------9----/-10-----7----/-9-----7------7----------|
 ------------------------------------------------------|

again RIFF C = 4 times
again RIFF I = 2 times
again RIFF D = 5 times (guitar one = 2 times D2/2 times D1/ 1 timeD2)
                             exact the opposite than before
                             (and guitar two = 5 times D2)

break / both guitars
|-----------------------------------------------------|
|-----------------------------------------------------|
|-----------------------------------------------------|
|-----5---4---5---7----9---7~---------10---7----9---5-|
|-----7---6---7---9---10---9~---------12---9---10---7-|
|-0-0---0---0---0---0----0--------0-0----0---0----0---|
  . .   .   .   .   .    .        . .    .   .    .

 -----------------------------------|
 -----------------------------------|
 -----------------------------------|
 ----10-10--------------------------|
 -8-8-8-8-11-11-12-12-8888999955556-|
 -6-6------9--9-10-10-6666777733334-|
  . . . .  .  . .  .

   ending both guitars
|----------------------||
|----------------------||
|----------------------||
|------------------2---||
|-2h3-----8/9---3--2---||
|-0h1-----6/7---1--0---||
                .
Добавлено: 22.02.2012
Другие материалы по этой песне:

Страница создана 22.02.2012
http://primanota.ru/cryptopsy/cold-hate-warm-blood-chords.htm
Привет, Гость.
Предлагаем пройти революционный курс по гитаре.
Подарок от PrimaNota.Ru, забирай!