PrimaNota.ru - самый крупный в мире бесплатный архив песенных текстов, аккордов, табулатур и нот


Cryptic Fate - Shet Shuvrota - таба

Регистрация Запомнить меня
Войти через:  Facebook Google Twitter Vk Yandex Mail.ru

Cryptic Fate - Shet Shuvrota - таба

Печатать
Просмотров: 109
Greetings... This time I present you the TAB for Shet Shubhrotaa by Cryptic Fate (album 
sreshtho).

Here's the lyrics...

verse 1:
ekta chobee deebe ki eke
jaa dekhaabe shotti amaake
kothaa dichchhi paabe moollo tomaar
kaaron aami jaai shob peeche phele

prechorus:
sheeter duwaar khoole jai
boshonto phooler gondhhe haae
dhheke jaae amaar sheeter(/jeerno) haat
shobuj poshaake

chorus:
bhenge goro notun kore
shotyer chowaa amaar ghore
shaath ronger bornaalee teh noi
eke daao shet shubhrotaae

verse 2:
ektaa golpo deebe ki leekhe
jaa bolbe amaar oteet tomaake
kichu ki tumi neebe sheekhe
naa shudhu lekhaar jonno jaabe leekhe

verse 3:
shomoy nei aar chobee akaar
golpo shonaar shomoy nei je aar
esheche neme aalor doot
shomoy holo ononte jabaar

Intro --

play this figure with a clean tone --

e|2-------|2-2---2-|0-------|0-0---0-||0-------|0-0-0-0-|--0-0---|0-0---0-|
B|0-------|0-0---0-|0-------|0-0---0-||0-------|0-0-0-1-|--1-1---|1-1---0-|
G|2-------|2-2---2-|2-------|2-2---2-||2-------|2-2-0-0-|--0-0---|0-0---0-|
D|2-------|2-2---2-|0-------|0-0---0-||2-------|2-2-0-2-|--2-2---|2-2---0-|
A|--------|--------|--------|--------||--------|----0-0-|--0-0---|0-0-----|
E|--------|--------|--------|--------||--------|--------|--------|--------|

e|0-------|0-0---0-|3-------|3-3---3-||5-------|--------|--------|----|
B|0-------|0-0---0-|0-------|0-0---0-||0-------|--------|--------|----|
G|2-------|2-2---2-|4-------|4-4---4-||6-------|--------|--------|----|
D|3-------|3-3---3-|5-------|5-5---5-||7-------|--------|--------|----|
A|--------|--------|--------|--------||--------|--------|--------|----|
E|--------|--------|--------|--------||--------|--------|--------|----|

Then with distorted guitar --

e|--------|--------|
B|--------|--------|
G|--------|--------|
D|9-8-----|--------|
A|----8-7-|--5-5-/-|
E|--------|--3-3-/-|

Then start playing the intro riff --

..A5. . . . . . . . . . . . . . . . . .G5 . . . . . A5 . . . . . . . .
e|--------|--------|--------|--------||--------|--------|--------|----|
B|--------|--------|--------|--------||--------|--------|--------|----|
G|--------|--------|--------|--------||--------|--------|--------|----|
D|--------|--------|--------|--------||--------|--------|--------|----|
A|7-------|7-7-7---|----7---|7-7-7-7-||5-------|5-5-7---|----0-3-|5---|
E|5-------|5-5-5---|----5---|5-5-5-5-||3-------|3-3-5---|--------|--3-|

simply last bit cut off.
play this riff 4 times for intro.

verse(ektaa chobee... ) --

..A5. . . . . . . . . . . . . . . . . .G5 . . . . . A5 . . . . . . . .
e|--------|--------|--------|--------||--------|--------|--------|----|
B|--------|--------|--------|--------||--------|--------|--------|----|
G|--------|--------|--------|--------||--------|--------|--------|----|
D|--------|--------|--------|--------||--------|--------|--------|----|
A|7-------|7-7-7---|----7---|7-7-7-7-||5-------|5-5-7---|----0-3-|5---|
E|5-------|5-5-5---|----5---|5-5-5-5-||3-------|3-3-5---|--------|--3-|

Play 4 times for each verse.

prechorus(sheeter duwaar... ) --

..C5 . . . . . . . . . . . . . . . . . E5. . . . . . . . . . . . . . . . .
e|--------|--------|--------|--------||--------|--------|--------|--------|
B|--------|--------|--------|--------||--------|--------|--------|--------|
G|--------|--------|--------|--------||--------|--------|--------|--------|
D|5-------|--------|--------|--------||2-------|--------|--------|--------|
A|3-------|--------|--------|--------||2-------|--------|--------|--------|
E|--------|--------|--------|--------||0-------|--------|--------|--------|

Play it 4 times, then play chorus riff.

chorus(bhenge goro... ) --

..G5 . . . . . . . . . . . . . . . . . F5. . . . . . . . . . . . . . . . .
e|--------|--------|--------|--------||--------|--------|--------|--------|
B|--------|--------|--------|--------||--------|--------|--------|--------|
G|--------|--------|--------|--------||--------|--------|--------|--------|
D|--------|--------|--------|--------||--------|--------|--------|--------|
A|5-------|--------|--------|--------||3-------|--------|--------|--------|
E|3-------|--------|--------|--------||1-------|--------|--------|--------|

Play 4 times.
feel free to throw some pulm mute and other additional strokes in.

Solo --

.. . . . . . . . . . . . . . . . . . . . . . . . . . . . *tremolo with bender
e|--------|--------|--------|--------||--------|--------|--------|----|
B|--------|--------|--------|--------||--------|--------|--------|----|
G|--------|--------|--------|--------||--------|--------|--------|----|
D|--------|5/6-7-6-|----7~--|8~7-6---||$-9---9-|9/$-$-$-|/\/\----|----|
A|----5-7-|--------|--------|--------||--------|--------|--------|----|
E|5-8-----|--------|--------|--------||--------|--------|--------|----|

e|--------|--------|--------|--------||--------|--------|--------|----|
B|--------|--------|--------|--------||--------|--------|--------|----|
G|--------|--------|--------|--------||--------|--------|--------|----|
D|--------|7b-r2---|----7---|9---)---||--------|----9-7-|--------|----|
A|--------|--------|------7-|--7---7-||--8-!-@-|!-8-----|7-----\-|/@\-|
E|0-------|--------|--------|--------||)-------|--------|--------|----|

e|--------|--------|--------|--------||--------|--------|--------|----|
B|--------|--------|--------|--------||--------|--------|--------|----|
G|--------|--------|@~------|--------||----@\7-|7--/@-@\|7---9-9-|----|
D|----!---|!---!-@-|--------|$@!-!---||!-@-----|--------|--------|----|
A|)-@---@-|--@-----|--------|--------||--------|--------|--------|----|
E|--------|--------|--------|--------||--------|--------|--------|----|

e|--------|--------|--------|--------||8-9-x-)-|x-9-x-9/|%-%-@~--|----|
B|--------|--------|--------|8-9-)---||--------|--------|--------|----|
G|--------|--------|------9-|--------||--------|--------|--------|----|
D|----!---|--!---!-|@-!-@---|--------||--------|--------|--------|----|
A|)-@---)-|@---@---|--------|--------||--------|--------|--------|----|
E|--------|--------|--------|--------||--------|--------|--------|----|

.
.

e|----7---|7-8-7---|----7---|7-8-7---||----7---|7-8-7-8-|)-8-7---|7-------|
B|--8---8-|------8-|--8---8-|------8-||--8---8-|--------|------8-|--8-----|
G|9-------|--------|9-------|--------||9-------|--------|--------|----9---|
D|--------|--------|--------|--------||--------|--------|--------|--------|
A|--------|--------|--------|--------||--------|--------|--------|--------|
E|--------|--------|--------|--------||--------|--------|--------|--------|

e|----7---|7-8-7---|----7---|7-8-7-8-||)87 875|--- ---|--- ---|--------|
B|--8---8-|------8-|--8---8-|--------||--- ---|)87 875|--- ---|--------|
G|9-------|--------|9-------|--------||--- ---|--- ---|754 542|--------|
D|--------|--------|--------|--------||--- ---|--- ---|--- ---|5-2---0-|
A|--------|--------|--------|--------||--- ---|--- ---|--- ---|--------|
E|--------|--------|--------|--------||--- ---|--- ---|--- ---|--------|
... . . . . . . . . . . . . . . . . . .1/3 1/3 1/3 1/3 1/3 1/3

e|--------|--------|--------|--------||--------|--------|--------|--------|
B|----8---|----@-)-|@-#-@-)-|@/%---&-||@-------|----)-8-|)bx-8~--|5~~-----|
G|7-9-----|--------|--------|--------||--------|--------|--------|--------|
D|--------|--------|--------|--------||--------|--------|--------|--------|
A|--------|--------|--------|--------||--------|--------|--------|--------|
E|--------|--------|--------|--------||--------|--------|--------|--------|

e|--------|--------|--------|--------||%-B-----|%BR-@~~-|--------|----\---|
B|%-B-----|%BR-----|--------|----!-@-||--------|--------|--------|--------|
G|--------|----@---|--------|@-$-----||--------|--------|--------|--------|
D|--------|--------|----@-$-|--------||--------|--------|--------|--------|
A|--------|--------|--------|--------||--------|--------|--------|--------|
E|--------|--------|--------|--------||--------|--------|--------|--------|

.
.

..(8 measures)
e|)-@-%-)-@-%-)-@-%-)-@-%-)-@-%--@-%-&-@-%-&-@-%-&-%-@-%-@-)-@-!-)-@~--|
B|---------------------------------------------------------------------|
G|---------------------------------------------------------------------|
D|---------------------------------------------------------------------|
A|---------------------------------------------------------------------|
E|---------------------------------------------------------------------|

..(8 measures)
e|)-@-%-)-@-%-)-@-%-)-@-%-)-@-%--@-%-&-@-%-&-@-%-&-%-@-%-@-)-@-!-)-@-\)|
B|---------------------------------------------------------------------|
G|---------------------------------------------------------------------|
D|---------------------------------------------------------------------|
A|---------------------------------------------------------------------|
E|---------------------------------------------------------------------|

..(8 measures)
e|---------------------------------------------------------------------|
B|%B---%BR-@---@-#-@-)-@-\)-b-8-8-)-)-B-%-#-@-)-@-)-#-B-R-@-)-@~~------|
G|---------------------------------------------------------------------|
D|---------------------------------------------------------------------|
A|---------------------------------------------------------------------|
E|---------------------------------------------------------------------|

..(4 measures)
e|8-/)-)-/@-@-/%-$-/@-@-\)-)-/@-@-/%-%-|
B|-------------------------------------|
G|5-/7-7-/9-9-/@-@-/9-9-\7-7-/9-9-/@-@-|
D|-------------------------------------|
A|-------------------------------------|
E|-------------------------------------|

..(4 measures)
.. T . T . .T . T . .T . T . .T . T . .T . T . .T . T . .T . T . .T . T .
e|-(-@-&-@--(-@-&-@--%-@-(-@--&-@-%-@--(-@-&-@--(-@-&-@--%-@-?-@--&-@-%-@-|
B|------------------------------------------------------------------------|
G|------------------------------------------------------------------------|
D|------------------------------------------------------------------------|
A|------------------------------------------------------------------------|
E|------------------------------------------------------------------------|

.
.

..(verse riff starts)
e|@/\/\/\/|\/\/\/\-|--------|--------|
B|--------|--------|--------|--------|
G|--------|--------|--------|--------|
D|--------|--------|--------|--------|
A|--------|--------|--------|--------|
E|--------|--------|--------|--------|

I'm certain you'll need the legends...

) fret 10
! fret 11
@ fret 12
# fret 13
$ fret 14
% fret 15

& fret 17

( fret 19 NOT fret 10.
? fret 20

B bend full step
R release full step
b bend half step
r release half step
T tap with right hand

1/3 triplet

/ slide up
\ slide down
/\/\ tremolo
~ vibrato

Disclaimer:
* This is the author's own work and intended for study purpose only.
* The creator and owner of the song has NOT been contacted and taken permission of.
* Any false or misleading information is entirely accidental and/or co-incidental.
* The author takes NO responsiblity to defend any criticism(s) from or on behalf of the 
of the song. However, any comment(s) or criticism(s) from the forum is always welcome.

Guys (and gals),

I can also include the bass and drums parts for the song if someone asks for it. Again, 
anybody wants any other song TABbed, I'll be more than happy to contribute.

Questions? Comments? Critisism? Or are you a pretty girl?
Just send me a mail at shwachchhaw@hotmail.com
Добавлено: 28.05.2012
Другие материалы по этой песне:
  • Аккорды и текст

Страница создана 28.05.2012
http://primanota.ru/cryptic-fate/shet-shuvrota-chords.htm
Привет, Гость.
Предлагаем пройти революционный курс по гитаре.
Подарок от PrimaNota.Ru, забирай!