PrimaNota.ru - самый крупный в мире бесплатный архив песенных текстов, аккордов, табулатур и нот


Cryptic Fate - Lobher Agun - таба, видео

Регистрация Запомнить меня
Войти через:  Facebook Google Twitter Vk Yandex Mail.ru

Cryptic Fate - Lobher Agun - таба, видео

Печатать
Просмотров: 93
Artist:cryptic fate
song: lobher agun


Hi, guys it's my 2nd tab , hope u'll enjoy it.


Beginning 0:00
figure 1
|-------------------------------------------------------------|
|----7-------6----------4---4-4-------------------------------|
|------6-------6------6---6-----6-----------------------------|
|--------6-------6--------------------------------------------|
|--4-------4--------7-------6---------------------------------|
|-------------------------------------------------------------|

|-------------------------------------------------------------|
|----7-------6----------4-----4-------------------------------|
|------6-------6------4---6-4---6-----------------------------|
|--------6-------6--------------------------------------------|
|--4-------4--------7-------2---------------------------------|
|-------------------------------------------------------------|

Figure 2   (at 00:14:25 along with fig.1)
e|--------|--------|--------|--------|
B|--------|--------|--------|--------|
G|--------|--------|--------|--------|
D|6---6-6-|6-6-6-6-|9-9-9-8-|--------|
A|4---4-4-|2-4-4-4-|7-7-7-6-|--7-6-7-|
E|--------|--------|--------|--------|

      
e|--------|--------|--------|--------|
B|--------|--------|--------|--------|
G|--------|--------|--------|--------|
D|6---6-6-|6-6-6-6-|2-2-2-4-|--4-4-4-|
A|4---2-2-|2-2-2-2-|0-0-0-2!|--2!2!2!|(!=scream only from 2nd time (from 2nd guitar)
E|----^-^-|^-^-^-^-|--------|--------|(^=palm mute/half cut)



guide:

At the beginning play only fig 1 for 2 times.

Then play fig 2 +fig 1 for two times

Then start with only fig 2 for two times.


Now comes the verses
verses:

  onek...........hariechi ........ama--
e|--------|--------|--------|--------|
B|--------|--------|--------|--------|
G|--------|--------|--------|--------|
D|6---6-6-|6-6-6-6-|9-9-9-8-|--------|
A|4---4-4-|2-4-4-4-|7-7-7-6-|--7-6-7-|
E|--------|--------|--------|--------|

  r...jibo.......ne........    
e|--------|--------|--------|--------|
B|--------|--------|--------|--------|
G|--------|--------|--------|--------|
D|6---6-6-|6-6-6-6-|2-2-2-4-|--4-4-4-|
A|4---2-2-|2-2-2-2-|0-0-0-2!|--2!2!2!|(!=scream only from 2nd time (from 2nd guitar)
E|----^-^-|^-^-^-^-|--------|--------|(^=palm mute/half cut)

Thus every versess goes on.......
Prechorus:
Charidike...........................................
e|--------|--------|--------|--------||--------|--------|--------|--------|Played on 1st guitar
B|--------|--------|--------|--------||--------|--------|--------|--------|
G|--------|--------|--------|--------||--------|--------|--------|--------|
D|2---2-2-|2-2-2-2-|4---4-4-|4-4-4-4-||6---6-6-|6-6-6-6-|6---6-6-|6-6-6-6-|
A|0---0-0-|0-0-0-0-|2---2-2-|2-2-2-2-||4---4-4-|4-4-4-4-|4---4-4-|4-4-4-4-|
E|--------|--------|--------|--------||--------|--------|--------|--------|

							|-----------------|Played on 2nd guitar..
							|-5-7-5-4-5-4-----|
							|------------6----|
							|--------------2~-|
							|-----------------|
							|-----------------|



 venge .................................................................
e|--------|--------|--------|--------||--------|--------|--------|--------|Played on 1st guitar
B|--------|--------|--------|--------||--------|--------|--------|--------|
G|--------|--------|--------|--------||--------|--------|--------|--------|
D|2---2-2-|2-2-2-2-|4---4-4-|4-4-4-4-||6---6-6-|6-6-6-6-|6---6-6-|6-6-6-6-|
A|0---0-0-|0-0-0-0-|2---2-2-|2-2-2-2-||4---4-4-|4-4-4-4-|4---4-4-|4-4-4-4-|
E|--------|--------|--------|--------||--------|--------|--------|--------|

							|-----------------|Played on 2nd guitar..
							|-9~-7------------|
							|-----9-8p9h8--6~~|
							|-----------------|
							|-----------------|
							|-----------------|




Chorus:


Ondho.....Bishas.....................................
e|--------|--------|--------|--------||--------|--------|--------|--------|
B|--------|--------|--------|--------||--------|--------|--------|--------|
G|--------|--------|--------|--------||--------|--------|--------|--------|
D|2---2-2-|2-2-2-2-|4---4-4-|4-4-4-4-||6---6-6-|6-6-6-6-|6---6-6-|6-6-6-6-|
A|0---0-0-|0-0-0-0-|2---2-2-|2-2-2-2-||4---4-4-|4-4-4-4-|4---4-4-|4-4-4-4-|
E|--------|--------|--------|--------||--------|--------|--------|--------|

Shomoy..............................    takabar............
e|--------|--------|--------|--------||--------|--------|--------|--------|
B|--------|--------|--------|--------||--------|--------|--------|--------|
G|--------|--------|--------|--------||--------|--------|--------|--------|
D|2---2-2-|2-2-2-2-|4---4-4-|4-4-4-4-||--------|--------|--------|--------|
A|0---0-0-|0-0-0-0-|2---2-2-|2-2-2-2-||4---4-4-|4-4-4-4-|6---6-6-|6-6-6-6-|(hit 2 times instead of one at a time)
E|--------|--------|--------|--------||2---2-2-|2-2-2-2-|4---4-4-|4-4-4-4-|
                                                         *---*-*--*-*-*-*-|

e|--------|--------|--------|--------||--------|--------|--------|--------|
B|--------|--------|--------|--------||--------|--------|--------|--------|
G|--------|--------|--------|--------||--------|--------|--------|--------|
D|6---6-6-|6-6-6-6-|4---4-4-|4-4-4-4-||6---6-6-|6-6-6-6-|2---2-2-|--------|
A|4---4-4-|4-4-4-4-|2---2-2-|2-2-2-2-||4---4-4-|4-4-4-4-|0---0-0-|2-4-2~~-|
E|--------|--------|--------|--------||--------|--------|--------|--------|

e|--------|--------|--------|--------||--------|--------|--------|--------|
B|--------|--------|--------|--------||--------|--------|--------|--------|
G|--------|--------|--------|--------||--------|--------|--------|--------|
D|6---6-6-|6-6-6-6-|4---4-4-|4-4-4-4-||2---2-2-|2-2-2-2-|4---4-4-|4-4-4-4-|
A|4---4-4-|4-4-4-4-|2---2-2-|2-2-2-2-||0---0-0-|0-0-0-0-|2---2-2-|2-2-2-2-|
E|--------|--------|--------|--------||--------|--------|--------|--------|


Solo:
play fig 2 at background
the solo goes like this at the 1st time.....(didn't try to compose further on want of an electric guitar)
|---9^^--9^^---7-9-7-------7---------------------------------------------------------|
|--------------------9~------9-7-----------------------------------------------------|
|--------------------------------7--8-9-8-6---6-8-9-6-8-9/11~~~----------------------|
|-------------------------------------------9----------------------------------------|
|------------------------------------------------------------------------------------|
|------------------------------------------------------------------------------------|

|------------------------------------------------------------------------------------|
|------------------------------------------------------------------------------------|
|------------------6-8---6-8-9-9/11~..........---------------------------------------|
|------------6-7-9-----9-------------------------------------------------------------|
|------------------------------------------------------------------------------------|
|---4-4-4-4--------------------------------------------------------------------------|






My other tabs:
1. amar pothe chola- artcell (hosted on Ultimate-guitar.com)
2. lobher agun- Cryptic Fate (hosted on Ultimate-guitar.com)
I think doesn't need to be commented.(for it's accuracy,i Think!)
but still if someone, specially cuties have got something to say ,Mail or sms me on this address:


* This is the author's own work and intended for study purpose only.
* The creator and owner of the song has NOT been contacted and taken permission of.

Irshaad_ifti@yahoo.com
Mob:0188487932

d

Добавлено: 12.03.2012
Другие материалы по этой песне:

Страница создана 12.03.2012
http://primanota.ru/cryptic-fate/lobher-agun-chords.htm
Привет, Гость.
Предлагаем пройти революционный курс по гитаре.
Подарок от PrimaNota.Ru, забирай!