PrimaNota.ru - самый крупный в мире бесплатный архив песенных текстов, аккордов, табулатур и нот


Cryostorm - Vivify - таба, видео

Регистрация Запомнить меня
Войти через:  Facebook Google Twitter Vk Yandex Mail.ru

Cryostorm - Vivify - таба, видео

Печатать
Просмотров: 94
Gtr I (C G C F A D) - 'Untitled'
Gtr II (C G C F A D) - 'Untitled'

  Q=210
                        $
 4/4
  Gtr I
  W          H    E E E   E
|----------|----------------|
|----------|----------------|
|----------|----------------|
|----------|------0-1-3---5-|
|----------|------0-1-3---5-|
|----------|------0-1-3---5-|
|
| Gtr II
| W          H    E E E   E
|----------|----------------|
|----------|----------------|
|----------|----------------|
|----------|------0-1-3-----|
|----------|------0-1-3--10-|
|----------|------0-1-3-----|


   +E   E E E E E E E   +E  E E   E E E E E
|---------------------|---------------------|
|---------------------|---------------------|
|---------------------|---------------------|
|--(5)--5-5-5-5-5-5-3-|-(3)-3-3---3-3-3-3-0-|
|--(5)--5-5-5-5-5-5-3-|-(3)-3-3---3-3-3-3-0-|
|--(5)--5-5-5-5-5-5-3-|-(3)-3-3---3-3-3-3-0-|
|
|  +E   E E E E E E E   +E  E S S Q   E E E
|---------------6-5---|---------------------|
|-------------8-----6-|-(6)-6---------------|
|-----------7---------|-------5-7-5---3-5-7-|
|---------8-----------|---------------------|
|-(10)-10-------------|---------------------|
|---------------------|---------------------|


  +E   E E E E E E E   +E   E  E  E  E  E  E  E
|--------------------|------------------------------|
|--------------------|------------------------------|
|--------------------|------------------------------|
|-(0)--0-0-0-0-0-0-1-|-(1)--1--1--1--1--1--1--5-----|
|-(0)--0-0-0-0-0-0-1-|-(1)--1--1--1--1--1--1--5-----|
|-(0)--0-0-0-0-0-0-1-|-(1)--1--1--1--1--1--1--5-----|
|
| +E   E E E E E E E   +E   E  E  E  E  E  E  E
|--------------6-5---|-----------18-17--------------|
|------------8-----6-|-(6)----20-------18-15-18b20==|
|-(7)------7---------|-----19-----------------------|
|--------8-----------|------------------------------|
|-----10-------------|------------------------------|
|--------------------|------------------------------|


   +E   E E E E E E E   +E  E E   E E E E E
|---------------------|---------------------|
|---------------------|---------------------|
|---------------------|---------------------|
|--(5)--5-5-5-5-5-5-3-|-(3)-3-3---3-3-3-3---|
|--(5)--5-5-5-5-5-5-3-|-(3)-3-3---3-3-3-3---|
|--(5)--5-5-5-5-5-5-3-|-(3)-3-3---3-3-3-3-0-|
|
|  +Q     E E E E E E   +E  E S S Q   E E E
|---------------6-5---|---------------------|
|-(18)r-------8-----6-|-(6)-6---------------|
|-----------7---------|-------5-7-5---3-5-7-|
|---------8-----------|---------------------|
|---------------------|---------------------|
|---------------------|---------------------|


             |--3--|                     |--3---|
  +E   E E E E E   E E E   +E   E  E  E  E E    E  E  E
|------------------------|----------------------------------|
|------------------------|----------------------------------|
|------------------------|----------------------------------|
|------------------------|----------------------------5-----|
|--------1---0-1---0-----|---------1-----0-1----0-----5-----|
|-(0)--0---0---------3-1-|-(1)--1-----0------------3--5-----|
|
| +E   E E E E   E   E E   +E   E  E  E  E    E    E  E
|----------------6---5---|-----------20-17------------------|
|------------8---------6-|-(6)----20---------18---15-18b20==|
|-(7)------7-------------|-----19---------------------------|
|--------8---------------|----------------------------------|
|-----10-----------------|----------------------------------|
|------------------------|----------------------------------|


   +E   E E E E E E E   +E  E E   E E E E E
|---------------------|---------------------|
|---------------------|---------------------|
|---------------------|---------------------|
|--(5)--5-5-5-5-5-5-3-|-(3)-3-3---3-3-3-3-0-|
|--(5)--5-5-5-5-5-5-3-|-(3)-3-3---3-3-3-3-0-|
|--(5)--5-5-5-5-5-5-3-|-(3)-3-3---3-3-3-3-0-|
|
|  +Q     E E E E E E   +E  E S S Q   E E E
|---------------6-5---|---------------------|
|-(18)r-------8-----6-|-(6)-6---------------|
|-----------7---------|-------5-7-5---3-5-7-|
|---------8-----------|---------------------|
|---------------------|---------------------|
|---------------------|---------------------|


  +E   E E E E E E E   +E   E  E  E  E  E  E  E
|--------------------|------------------------------|
|--------------------|------------------------------|
|--------------------|------------------------------|
|-(0)--0-0-0-0-0-0-1-|-(1)--1--1--1--1--1--1--5-----|
|-(0)--0-0-0-0-0-0-1-|-(1)--1--1--1--1--1--1--5-----|
|-(0)--0-0-0-0-0-0-1-|-(1)--1--1--1--1--1--1--5-----|
|
| +E   E E E E E E E   +E   E  E  E  E  E  E  E
|--------------6-5---|-----------18-17--------------|
|------------8-----6-|-(6)----20-------18-15-18b20==|
|-(7)------7---------|-----19-----------------------|
|--------8-----------|------------------------------|
|-----10-------------|------------------------------|
|--------------------|------------------------------|


   +E   E E E E E E E   +E  E E   E E E E E
|---------------------|---------------------|
|---------------------|---------------------|
|---------------------|---------------------|
|--(5)--5-5-5-5-5-5-3-|-(3)-3-3---3-3-3-3---|
|--(5)--5-5-5-5-5-5-3-|-(3)-3-3---3-3-3-3---|
|--(5)--5-5-5-5-5-5-3-|-(3)-3-3---3-3-3-3-0-|
|
|  +Q     E E E E E E   +E  E S S Q   E E E
|---------------6-5---|---------------------|
|-(18)r-------8-----6-|-(6)-6---------------|
|-----------7---------|-------5-7-5---3-5-7-|
|---------8-----------|---------------------|
|---------------------|---------------------|
|---------------------|---------------------|


             |--3--|                     |--3---|
  +E   E E E E E   E E E   +E   E  E  E  E E    E  E  E
|------------------------|----------------------------------|
|------------------------|----------------------------------|
|------------------------|----------------------------------|
|------------------------|----------------------------5-----|
|--------1---0-1---0-----|---------1-----0-1----0-----5-----|
|-(0)--0---0---------3-1-|-(1)--1-----0------------3--5-----|
|
| +E   E E E E   E   E E   +E   E  E  E  E    E    E  E
|----------------6---5---|-----------20-17------------------|
|------------8---------6-|-(6)----20---------18---15-18b20==|
|-(7)------7-------------|-----19---------------------------|
|--------8---------------|----------------------------5-----|
|-----10-----------------|----------------------------5-----|
|------------------------|----------------------------5-----|


    Gtr I
     +E    E    E    E  E E E E   +E  E E E E E E E
||------------------------------|-------------------|
||o-----------------------------|-------------------|
||------------------------------|-------------------|
||---(5)---3----5----5--5-5-5-5-|-(5)-3-5-5-5-5-5-3-|
||o--(5)---3----5-------------5-|-(5)-3-5-----------|
||---(5)---3----5-------------5-|-(5)-3-5-----------|
|
|   Gtr II
|    +E    E    E    E  E E E E   +E  E E E E E E E
||------------------------------|-------------------|
||o-(18)-(18)-(18)-(18)---------|-------------------|
||-------------------3--3-3-3---|---------3-3-3-3-2-|
||---(5)---3----5-------------5-|-(5)-3-5-----------|
||o--(5)---3----5-------------5-|-(5)-3-5-----------|
||---(5)---3----5-------------5-|-(5)-3-5-----------|


  +E  E E E E E E E   +E  E E E E E E E   3x
|-------------------|---------------------||
|-------------------|--------------------o||
|-------------------|---------------------||
|-(3)-2-3-3-3-3-3-0-|-(0)-1-0-5-3-----5---||
|---------3-3-3-3-0-|-(0)-1-0-----5-3-5--o||
|---------3-3-3-3-0-|-(0)-1-0---------5---||
|
| +E  E E E E E E E   +E  E E E E E E E   3x
|-------------------|---------------------||
|-------------------|--------------------o||
|-(2)-0-2-----------|---------3-2---------||
|---------3-3-3-3-0-|-(0)-1-0-----3-2-5---||
|---------3-3-3-3-0-|-(0)-1-0---------5--o||
|---------3-3-3-3-0-|-(0)-1-0---------5---||


  +E  E E E E E E E   +E  E E E E E E E
|-------------------|-------------------|
|-------------------|-------------------|
|-------------------|-------------------|
|-(5)-3-5-5-5-5-5-5-|-(5)-3-5-5-5-5-5-3-|
|-(5)-3-5---------5-|-(5)-3-5-----------|
|-(5)-3-5---------5-|-(5)-3-5-----------|
|
| +E  E E E E E E E   +E  E E E E E E E
|-------------------|-------------------|
|-------------------|-------------------|
|---------3-3-3-3---|---------3-3-3-3-2-|
|-(5)-3-5---------5-|-(5)-3-5-----------|
|-(5)-3-5---------5-|-(5)-3-5-----------|
|-(5)-3-5---------5-|-(5)-3-5-----------|


                                    D.S.
  +E  E E E E E E E   +E  E E E E E E E
|-------------------|---------------------|
|-------------------|---------------------|
|-------------------|---------------------|
|-(3)-2-3-3-3-3-3-0-|-(0)-1-0-5-3---------|
|---------3-3-3-3-0-|-(0)-1-0-----5-3-0---|
|---------3-3-3-3-0-|-(0)-1-0-------------|
|
| +E  E E E E E E E   +E  E E E E E E E
|-------------------|---------------------|
|-------------------|---------------------|
|-(2)-0-2-----------|---------3-2---------|
|---------3-3-3-3-0-|-(0)-1-0-----3-2-----|
|---------3-3-3-3-0-|-(0)-1-0---------3---|
|---------3-3-3-3-0-|-(0)-1-0-------------|


  E Q  E E Q  E   E Q  E E Q  E
|---------------|---------------|
|---------------|---------------|
|---------------|---------------|
|-0-1--1-0-1--1-|-0-1--1-0-1--1-|
|-0-1--1-0-1--1-|-0-1--1-0-1--1-|
|-0-1--1-0-1--1-|-0-1--1-0-1--1-|
|
| E Q  E E Q  E   E Q  E E Q  E
|---------------|---------------|
|---------------|---------------|
|---------------|---------------|
|-0-1--1-0-1--1-|-0-1--1-0-1--1-|
|-0-1--1-0-1--1-|-0-1--1-0-1--1-|
|-0-1--1-0-1--1-|-0-1--1-0-1--1-|


                            |-3-|
  E E E E E E E E   E E E E E E E E E
|-----------------|-------------------|
|-----------------|-------------------|
|-----------------|-------------------|
|---------------7-|-------------------|
|-9-----7-9-------|-9-----------------|
|---0-0-----0-0---|---0-0-0-0-2-2-2-2-|
|
|                           |-3-|
| E E E E E E E E   E E E E E E E E E
|-----------------|-------------------|
|-----------------|-------------------|
|---------------6-|-------------------|
|-7-----6-7-------|-7-----------------|
|-----------------|-------------------|
|---0-0-----0-0---|---0-0-0-0-2-2-2-2-|


  E E E E E E E E   E E E E S S S S S S S S
|-----------------|--------------------------|
|-----------------|--------------------------|
|-----------------|--------------------------|
|-------------7---|--------------------------|
|-----9---7-------|-9------------------------|
|-0-0---0---0---0-|---0-0-0-0-2-2-2-2-2-2-2--|
|
| E E E E E E E E   E E E E S S S S S S S S
|-----------------|--------------------------|
|-----------------|--------------------------|
|-------------6---|--------------------------|
|-----7---6-------|-7------------------------|
|-----------------|--------------------------|
|-0-0---0---0---0-|---0-0-0-0-2-2-2-2-2-2-2--|


                            |-3-|                         |--3--| |-3-|
  E E E E E E E E   E E E E E E E E E   E E E E E E E E   E E Q Q Q Q Q
|-----------------|-------------------|-----------------|---------------|
|-----------------|-------------------|-----------------|---------------|
|-----------------|-------------------|-----------------|---------------|
|---------------7-|-------------------|-------------7---|-7s9-7-6-7-6-4-|
|-9-----7-9-------|-9-----------------|-----9---7-------|---------------|
|---0-0-----0-0---|---0-0-0-0-2-2-2-2-|-0-0---0---0---0-|---------------|
|
|                           |-3-|                         |--3--| |-3-|
| E E E E E E E E   E E E E E E E E E   E E E E E E E E   E E Q Q Q Q Q
|-----------------|-------------------|-----------------|---------------|
|-----------------|-------------------|-----------------|---------------|
|---------------6-|-------------------|-------------6---|-6s7-6-4-6-4-2-|
|-7-----6-7-------|-7-----------------|-----7---6-------|---------------|
|-----------------|-------------------|-----------------|---------------|
|---0-0-----0-0---|---0-0-0-0-2-2-2-2-|-0-0---0---0---0-|---------------|


                            |-3-|
  E E E E E E E E   E E E E E E E E E
|-----------------|-------------------|
|-----------------|-------------------|
|-----------------|-------------------|
|---------------7-|-------------------|
|-9-----7-9-------|-9-----------------|
|---0-0-----0-0---|---0-0-0-0-2-2-2-2-|
|
|                           |-3-|
| E E E E E E E E   E E E E E E E E E
|-----------------|-------------------|
|-----------------|-------------------|
|---------------6-|-------------------|
|-7-----6-7-------|-7-----------------|
|-----------------|-------------------|
|---0-0-----0-0---|---0-0-0-0-2-2-2-2-|


  E E E E E E E E   E E E E S S S S S S S S
|-----------------|--------------------------|
|-----------------|--------------------------|
|-----------------|--------------------------|
|-------------7---|--------------------------|
|-----9---7-------|-9------------------------|
|-0-0---0---0---0-|---0-0-0-0-2-2-2-2-2-2-2--|
|
| E E E E E E E E   E E E E S S S S S S S S
|-----------------|--------------------------|
|-----------------|--------------------------|
|-------------6---|--------------------------|
|-----7---6-------|-7------------------------|
|-----------------|--------------------------|
|-0-0---0---0---0-|---0-0-0-0-2-2-2-2-2-2-2--|


                            |-3-|                         |--3--| |-3-|
  E E E E E E E E   E E E E E E E E E   E E E E E E E E   E E Q Q Q Q Q
|-----------------|-------------------|-----------------|---------------|
|-----------------|-------------------|-----------------|---------------|
|-----------------|-------------------|-----------------|---------------|
|---------------7-|-------------------|-------------7---|-7s9-7-6-4-6-7-|
|-9-----7-9-------|-9-----------------|-----9---7-------|---------------|
|---0-0-----0-0---|---0-0-0-0-2-2-2-2-|-0-0---0---0---0-|---------------|
|
|                           |-3-|                         |--3--| |-3-|
| E E E E E E E E   E E E E E E E E E   E E E E E E E E   E E Q Q Q Q Q
|-----------------|-------------------|-----------------|---------------|
|-----------------|-------------------|-----------------|---------------|
|---------------6-|-------------------|-------------6---|-6s7-6-4-2-4-6-|
|-7-----6-7-------|-7-----------------|-----7---6-------|---------------|
|-----------------|-------------------|-----------------|---------------|
|---0-0-----0-0---|---0-0-0-0-2-2-2-2-|-0-0---0---0---0-|---------------|


   E  E E E E E E E   +E  E E   E E E E E
|-------------------|---------------------|
|-------------------|---------------------|
|-------------------|---------------------|
|--5--5-5-5-5-5-5-3-|-(3)-3-3---3-3-3-3-0-|
|--5--5-5-5-5-5-5-3-|-(3)-3-3---3-3-3-3-0-|
|--5--5-5-5-5-5-5-3-|-(3)-3-3---3-3-3-3-0-|
|
|  E  E E E E E E E   +E  E S S Q   E E E
|-------------6-5---|---------------------|
|-----------8-----6-|-(6)-6---------------|
|---------7---------|-------5-7-5---3-5-7-|
|-------8-----------|---------------------|
|-10-10-------------|---------------------|
|-------------------|---------------------|


  +E   E E E E E E E   +E   E  E  E  E  E  E  E
|--------------------|------------------------------|
|--------------------|------------------------------|
|--------------------|------------------------------|
|-(0)--0-0-0-0-0-0-1-|-(1)--1--1--1--1--1--1--5-----|
|-(0)--0-0-0-0-0-0-1-|-(1)--1--1--1--1--1--1--5-----|
|-(0)--0-0-0-0-0-0-1-|-(1)--1--1--1--1--1--1--5-----|
|
| +E   E E E E E E E   +E   E  E  E  E  E  E  E
|--------------6-5---|-----------18-17--------------|
|------------8-----6-|-(6)----20-------18-15-18b20==|
|-(7)------7---------|-----19-----------------------|
|--------8-----------|------------------------------|
|-----10-------------|------------------------------|
|--------------------|------------------------------|


   +E   E E E E E E E   +E  E E   E E E E E
|---------------------|---------------------|
|---------------------|---------------------|
|---------------------|---------------------|
|--(5)--5-5-5-5-5-5-3-|-(3)-3-3---3-3-3-3---|
|--(5)--5-5-5-5-5-5-3-|-(3)-3-3---3-3-3-3---|
|--(5)--5-5-5-5-5-5-3-|-(3)-3-3---3-3-3-3-0-|
|
|  +Q     E E E E E E   +E  E S S Q   E E E
|---------------6-5---|---------------------|
|-(18)r-------8-----6-|-(6)-6---------------|
|-----------7---------|-------5-7-5---3-5-7-|
|---------8-----------|---------------------|
|---------------------|---------------------|
|---------------------|---------------------|


             |--3--|                     |--3---|
  +E   E E E E E   E E E   +E   E  E  E  E E    E  E  E
|------------------------|----------------------------------|
|------------------------|----------------------------------|
|------------------------|----------------------------------|
|------------------------|----------------------------5-----|
|--------1---0-1---0-----|---------1-----0-1----0-----5-----|
|-(0)--0---0---------3-1-|-(1)--1-----0------------3--5-----|
|
| +E   E E E E   E   E E   +E   E  E  E  E    E    E  E
|----------------6---5---|-----------20-17------------------|
|------------8---------6-|-(6)----20---------18---15-18b20==|
|-(7)------7-------------|-----19---------------------------|
|--------8---------------|----------------------------------|
|-----10-----------------|----------------------------------|
|------------------------|----------------------------------|


    W          W          W          E Q.   E Q.
||-----------|----------|----------|----------------|
||o----------|----------|----------|----------------|
||-----------|----------|-3--------|----------------|
||--5--------|-3--------|-3--------|-0-1----0-3-----|
||o-5--------|-3--------|-1--------|-0-1----0-3-----|
||--5--------|-3--------|----------|-0-1----0-3-----|


  W          W          W          H    H
|----------|----------|----------|------------||
|----------|----------|----------|-----------o||
|----------|----------|-3--------|------------||
|-5--------|-3--------|-3--------|-1----0-----||
|-5--------|-3--------|-1--------|-1----0----o||
|-5--------|-3--------|----------|-1----0-----||


                            |-3-|
  E E E E E E E E   E E E E E E E E E
|-----------------|-------------------|
|-----------------|-------------------|
|-----------------|-------------------|
|---------------7-|-------------------|
|-9-----7-9-------|-9-----------------|
|---0-0-----0-0---|---0-0-0-0-2-2-2-2-|
|
|                           |-3-|
| E E E E E E E E   E E E E E E E E E
|-----------------|-------------------|
|-----------------|-------------------|
|---------------6-|-------------------|
|-7-----6-7-------|-7-----------------|
|-----------------|-------------------|
|---0-0-----0-0---|---0-0-0-0-2-2-2-2-|


  E E E E E E E E   E E E E S S S S S S S S
|-----------------|--------------------------|
|-----------------|--------------------------|
|-----------------|--------------------------|
|-------------7---|--------------------------|
|-----9---7-------|-9------------------------|
|-0-0---0---0---0-|---0-0-0-0-2-2-2-2-2-2-2--|
|
| E E E E E E E E   E E E E S S S S S S S S
|-----------------|--------------------------|
|-----------------|--------------------------|
|-------------6---|--------------------------|
|-----7---6-------|-7------------------------|
|-----------------|--------------------------|
|-0-0---0---0---0-|---0-0-0-0-2-2-2-2-2-2-2--|


                            |-3-|                         |--3--| |-3-|
  E E E E E E E E   E E E E E E E E E   E E E E E E E E   E E Q Q Q Q Q
|-----------------|-------------------|-----------------|---------------|
|-----------------|-------------------|-----------------|---------------|
|-----------------|-------------------|-----------------|---------------|
|---------------7-|-------------------|-------------7---|-7s9-7-6-7-6-4-|
|-9-----7-9-------|-9-----------------|-----9---7-------|---------------|
|---0-0-----0-0---|---0-0-0-0-2-2-2-2-|-0-0---0---0---0-|---------------|
|
|                           |-3-|                         |--3--| |-3-|
| E E E E E E E E   E E E E E E E E E   E E E E E E E E   E E Q Q Q Q Q
|-----------------|-------------------|-----------------|---------------|
|-----------------|-------------------|-----------------|---------------|
|---------------6-|-------------------|-------------6---|-6s7-6-4-6-4-2-|
|-7-----6-7-------|-7-----------------|-----7---6-------|---------------|
|-----------------|-------------------|-----------------|---------------|
|---0-0-----0-0---|---0-0-0-0-2-2-2-2-|-0-0---0---0---0-|---------------|


                            |-3-|
  E E E E E E E E   E E E E E E E E E
|-----------------|-------------------|
|-----------------|-------------------|
|-----------------|-------------------|
|---------------7-|-------------------|
|-9-----7-9-------|-9-----------------|
|---0-0-----0-0---|---0-0-0-0-2-2-2-2-|
|
|                           |-3-|
| E E E E E E E E   E E E E E E E E E
|-----------------|-------------------|
|-----------------|-------------------|
|---------------6-|-------------------|
|-7-----6-7-------|-7-----------------|
|-----------------|-------------------|
|---0-0-----0-0---|---0-0-0-0-2-2-2-2-|


  E E E E E E E E   E E E E S S S S S S S S
|-----------------|--------------------------|
|-----------------|--------------------------|
|-----------------|--------------------------|
|-------------7---|--------------------------|
|-----9---7-------|-9------------------------|
|-0-0---0---0---0-|---0-0-0-0-2-2-2-2-2-2-2--|
|
| E E E E E E E E   E E E E S S S S S S S S
|-----------------|--------------------------|
|-----------------|--------------------------|
|-------------6---|--------------------------|
|-----7---6-------|-7------------------------|
|-----------------|--------------------------|
|-0-0---0---0---0-|---0-0-0-0-2-2-2-2-2-2-2--|


                            |-3-|                         |--3--| |-3-|
  E E E E E E E E   E E E E E E E E E   E E E E E E E E   E E Q Q Q Q Q
|-----------------|-------------------|-----------------|---------------|
|-----------------|-------------------|-----------------|---------------|
|-----------------|-------------------|-----------------|---------------|
|---------------7-|-------------------|-------------7---|-7s9-7-6-4-6-7-|
|-9-----7-9-------|-9-----------------|-----9---7-------|---------------|
|---0-0-----0-0---|---0-0-0-0-2-2-2-2-|-0-0---0---0---0-|---------------|
|
|                           |-3-|                         |--3--| |-3-|
| E E E E E E E E   E E E E E E E E E   E E E E E E E E   E E Q Q Q Q Q
|-----------------|-------------------|-----------------|---------------|
|-----------------|-------------------|-----------------|---------------|
|---------------6-|-------------------|-------------6---|-6s7-6-4-2-4-6-|
|-7-----6-7-------|-7-----------------|-----7---6-------|---------------|
|-----------------|-------------------|-----------------|---------------|
|---0-0-----0-0---|---0-0-0-0-2-2-2-2-|-0-0---0---0---0-|---------------|


   E  E E E E E E E   +E  E E   E E E E E
|-------------------|---------------------|
|-------------------|---------------------|
|-------------------|---------------------|
|--5--5-5-5-5-5-5-3-|-(3)-3-3---3-3-3-3-0-|
|--5--5-5-5-5-5-5-3-|-(3)-3-3---3-3-3-3-0-|
|--5--5-5-5-5-5-5-3-|-(3)-3-3---3-3-3-3-0-|
|
|  E  E E E E E E E   +E  E S S Q   E E E
|-------------6-5---|---------------------|
|-----------8-----6-|-(6)-6---------------|
|---------7---------|-------5-7-5---3-5-7-|
|-------8-----------|---------------------|
|-10-10-------------|---------------------|
|-------------------|---------------------|


  +E   E E E E E E E   +E   E  E  E  E  E  E  E
|--------------------|------------------------------|
|--------------------|------------------------------|
|--------------------|------------------------------|
|-(0)--0-0-0-0-0-0-1-|-(1)--1--1--1--1--1--1--5-----|
|-(0)--0-0-0-0-0-0-1-|-(1)--1--1--1--1--1--1--5-----|
|-(0)--0-0-0-0-0-0-1-|-(1)--1--1--1--1--1--1--5-----|
|
| +E   E E E E E E E   +E   E  E  E  E  E  E  E
|--------------6-5---|-----------18-17--------------|
|------------8-----6-|-(6)----20-------18-15-18b20==|
|-(7)------7---------|-----19-----------------------|
|--------8-----------|------------------------------|
|-----10-------------|------------------------------|
|--------------------|------------------------------|


   +E   E E E E E E E   +E  E E   E E E E E
|---------------------|---------------------|
|---------------------|---------------------|
|---------------------|---------------------|
|--(5)--5-5-5-5-5-5-3-|-(3)-3-3---3-3-3-3---|
|--(5)--5-5-5-5-5-5-3-|-(3)-3-3---3-3-3-3---|
|--(5)--5-5-5-5-5-5-3-|-(3)-3-3---3-3-3-3-0-|
|
|  +Q     E E E E E E   +E  E S S Q   E E E
|---------------6-5---|---------------------|
|-(18)r-------8-----6-|-(6)-6---------------|
|-----------7---------|-------5-7-5---3-5-7-|
|---------8-----------|---------------------|
|---------------------|---------------------|
|---------------------|---------------------|


             |--3--|                     |--3---|
  +E   E E E E E   E E E   +E   E  E  E  E E    E  E  E
|------------------------|----------------------------------|
|------------------------|----------------------------------|
|------------------------|----------------------------------|
|------------------------|----------------------------5-----|
|--------1---0-1---0-----|---------1-----0-1----0-----5-----|
|-(0)--0---0---------3-1-|-(1)--1-----0------------3--5-----|
|
| +E   E E E E   E   E E   +E   E  E  E  E    E    E  E
|----------------6---5---|-----------20-17------------------|
|------------8---------6-|-(6)----20---------18---15-18b20==|
|-(7)------7-------------|-----19---------------------------|
|--------8---------------|----------------------------------|
|-----10-----------------|----------------------------------|
|------------------------|----------------------------------|


   +E   E E E E E E E   +E  E E   E E E E E
|---------------------|---------------------|
|---------------------|---------------------|
|---------------------|---------------------|
|--(5)--5-5-5-5-5-5-3-|-(3)-3-3---3-3-3-3-0-|
|--(5)--5-5-5-5-5-5-3-|-(3)-3-3---3-3-3-3-0-|
|--(5)--5-5-5-5-5-5-3-|-(3)-3-3---3-3-3-3-0-|
|
|  +Q     E E E E E E   +E  E S S Q   E E E
|---------------6-5---|---------------------|
|-(18)r-------8-----6-|-(6)-6---------------|
|-----------7---------|-------5-7-5---3-5-7-|
|---------8-----------|---------------------|
|---------------------|---------------------|
|---------------------|---------------------|


  +E   E E E E E E E   +E   E  E  E  E  E  E  E
|--------------------|------------------------------|
|--------------------|------------------------------|
|--------------------|------------------------------|
|-(0)--0-0-0-0-0-0-1-|-(1)--1--1--1--1--1--1--5-----|
|-(0)--0-0-0-0-0-0-1-|-(1)--1--1--1--1--1--1--5-----|
|-(0)--0-0-0-0-0-0-1-|-(1)--1--1--1--1--1--1--5-----|
|
| +E   E E E E E E E   +E   E  E  E  E  E  E  E
|--------------6-5---|-----------18-17--------------|
|------------8-----6-|-(6)----20-------18-15-18b20==|
|-(7)------7---------|-----19-----------------------|
|--------8-----------|------------------------------|
|-----10-------------|------------------------------|
|--------------------|------------------------------|


   +E   E E E E E E E   +E  E E   E E E E E
|---------------------|---------------------|
|---------------------|---------------------|
|---------------------|---------------------|
|--(5)--5-5-5-5-5-5-3-|-(3)-3-3---3-3-3-3---|
|--(5)--5-5-5-5-5-5-3-|-(3)-3-3---3-3-3-3---|
|--(5)--5-5-5-5-5-5-3-|-(3)-3-3---3-3-3-3-0-|
|
|  +Q     E E E E E E   +E  E S S Q   E E E
|---------------6-5---|---------------------|
|-(18)r-------8-----6-|-(6)-6---------------|
|-----------7---------|-------5-7-5---3-5---|
|---------8-----------|---------------------|
|---------------------|---------------------|
|---------------------|-------------------0-|


            |-3-|                 |-3-|
  +E  E E E E E E E E   +E  E E E E E E E E
|---------------------|---------------------|
|---------------------|---------------------|
|---------------------|---------------------|
|---------------------|---------------------|
|-------1---0-1-0-----|-------1---0-1-0-----|
|-(0)-0---0-------3-1-|-(1)-1---0-------3-0-|
|
|           |-3-|                 |-3-|
|  E  E E E E E E E E   +E  E E E E E E E E
|---------------------|---------------------|
|---------------------|---------------------|
|---------------------|---------------------|
|---------------------|---------------------|
|-------1---0-1-0-----|-------1---0-1-0-----|
|--0--0---0-------3-1-|-(1)-1---0-------3-0-|


                       6/4
            |-3-|                 |-3-|
  +E  E E E E E E E E   +E  E E E E E E E Q  E Q
|---------------------|---------------------------|
|---------------------|---------------------------|
|---------------------|---------------------------|
|---------------------|-------------------5--3-5\-|
|-------1---0-1-0-----|-------1---0-1-0---5--3-5\-|
|-(0)-0---0-------3-1-|-(1)-1---0-------3-5--3-5\-|
|
|           |-3-|                 |-3-|
| +E  E E E E E E E E   +E  E E E E E E E Q  E Q
|---------------------|---------------------------|
|---------------------|---------------------------|
|---------------------|---------------------------|
|---------------------|-------------------5--3-5\-|
|-------1---0-1-0-----|-------1---0-1-0---5--3-5\-|
|-(0)-0---0-------3-1-|-(1)-1---0-------3-5--3-5\-|


Duration Legend
---------------
W - whole; H - half; Q - quarter; E - 8th; S - 16th; T - 32nd; X - 64th; a - acciaccatura
+ - note tied to previous; . - note dotted; .. - note double dotted
Uncapitalized letters represent notes that are staccato (1/2 duration)
Irregular groupings are notated above the duration line
Duration letters will always appear directly above the note/fret number it represents the
duration for.  Duration letters with no fret number below them represent rests.  Multi-
bar rests are notated in the form Wxn, where n is the number of bars to rest for.  Low
melody durations appear below the staff

Tablature Legend
----------------
 h   - hammer-on
 p   - pull-off
 b   - bend
 pb  - pre-bend
 r   - bend release (if no number after the r, then release immediately)
 /\  - slide into or out of (from/to "nowhere")
 s   - legato slide
 S   - shift slide
  - natural harmonic
[n]  - artificial harmonic
n(n) - tapped harmonic
 ~   - vibrato
 tr  - trill
 T   - tap
 TP  - trem. picking
 PM  - palm muting
\n/  - tremolo bar dip; n = amount to dip
 \n  - tremolo bar down
 n/  - tremolo bar up
/n\  - tremolo bar inverted dip
 =   - hold bend; also acts as connecting device for hammers/pulls
 <>  - volume swell (louder/softer)
 x   - on rhythm slash represents muted slash
 o   - on rhythm slash represents single note slash

Misc Legend
-----------
 |  - bar
||  - double bar
||o - repeat start
o|| - repeat end
*|  - double bar (ending)
 :  - bar (freetime)
 $  - Segno
 &  - Coda
Tempo markers -  = BPM(8/16=s8/s16), where s8 = swing 8ths, s16 = swing 16ths


Добавлено: 04.06.2012
Другие материалы по этой песне:

Страница создана 04.06.2012
http://primanota.ru/cryostorm/vivify-chords.htm
Привет, Гость.
Предлагаем пройти революционный курс по гитаре.
Подарок от PrimaNota.Ru, забирай!