PrimaNota.ru - самый крупный в мире бесплатный архив песенных текстов, аккордов, табулатур и нот


Cryoshell - Gravity Hurts - таба, видео

Регистрация Запомнить меня
Войти через:  Facebook Google Twitter Vk Yandex Mail.ru

Cryoshell - Gravity Hurts - таба, видео

Печатать
Просмотров: 391
This is a basic version for those of you who want chords and a few tabs because
there really isn't anything else anywhere online!

Verse 1
E          Am
Tension is risin'
G       F
Gravity hurts
E           Am       G    F
Everythin's fallin' apart
E            Am
Choosin' the right side
G            F
Choosin' our faith
E           Am           G    F
Choosin' is what we must do
E          Am          G    F
Everyone's countin' on you

    E          G
For freedom we rise
D
Learn to fly, reach the sky
A                     E            G
Legend will carry you thousands of miles
D
Take a stand, hold the land
A                         E        G
Make sure that everyone's ready to win
D
Find the speed, all you need
A                     C -->
Team up for battle we
  Fly (C)                 Fly (D)
e|------------------------------------------------|
B|------------3-----------------------5-----------|
G|--------5-------5---------------7-------7-------|
D|----5---------------5-------7---------------7---|
A|3-3---3---3---3---3---3-5-5---5---5---5---5---5-|
E|------------------------------------------------|
  Em
e|------------------------------------|
B|------------------------------------|
G|------------------------------------|
D|------------3-----------3-2-0-------|
A|------2-3-5---2-3-------------3-2-2-|
E|0-0-0-------------0-0-0-------------|

   C   D
We fly
        Em
Gravity hurts
Clean riff starts on 'Hurts'
e|----0-----0-----0-----0-----0-----0-----0-----0-|
B|--0-----0-----0-----0-----0-----0-----0-----0---|
G|------------5-----5-----2-----2-----0-----------|
D|2-----2-----------------------------------4-----|
A|------------------------------------------------|
E|------------------------------------------------|

(Riff repeats through second verse)
Verse 2
Chorus
E (sustained through the next section)
There's a small riff at the end of each of the four bar periods:
e|--------|--------------------------------------|
B|--------|--------------------------------------|
G|--------|--------------------------------------|
D|2-3-0-3-|--------------------------------------|
A|2-3-0-3-|2-2-2-3-3-3-0-0-0-2-2-2-3-3-3-5-5-5-6-|
E|--------|--------------------------------------|
           Palm mute until the note at the end ^

Chorus X2
Добавлено: 29.04.2012
Другие материалы по этой песне:

Страница создана 29.04.2012
http://primanota.ru/cryoshell/gravity-hurts-chords.htm
Привет, Гость.
Предлагаем пройти революционный курс по гитаре.
Подарок от PrimaNota.Ru, забирай!