PrimaNota.ru - самый крупный в мире бесплатный архив песенных текстов, аккордов, табулатур и нот


Cryoshell - Face Me - таба, видео

Регистрация Запомнить меня
Войти через:  Facebook Google Twitter Vk Yandex Mail.ru

Cryoshell - Face Me - таба, видео

Печатать
Просмотров: 203
Artist: Cryoshell
Song: Face Me
Tuning: Drop D
Tabbed By: shredforever

This band isn't very well known but they're pretty good and this
if one of my favorite songs by them. I'm pretty sure there are only
2 guitars in this song but I added an extra one called Effect Guitar
since there is a part that plays in the background throughout most of 
the song. I'm not sure if this part is actually a guitar or a piano 
or just some sound effects but i thought i'd add it in. There are a
lot of overlapping sounds in this song so you have to listen carefully
to hear where everything goes and get the rhythm. Hope you guys like
this tab i worked very hard on this one =)

Verse 
Effect Guitar:
e|---------------------------------------------------------------|
B|---------------------------------------------------------------|
G|-----0---------------0--------0-----0-------------0--------0---| x3
D|--------2---------2--------4-----------2-------2--------4------|
A|--0----------0-3--------5--------0----------3--------5---------|
D|---------------------------------------------------------------|

e|----------------------------------|
B|----------------------------------|
G|-----0---------------0--------0---| 
D|--------2---------2--------4------|
A|--0----------0-3--------5---------|
D|----------------------------------|

Rhythm Guitar:
e|--------------------------------------------------------------|
B|--------------------------------------------------------------| 
G|-------12----------12-----------12-----------11-12-11---------| x5
D|----10----10----10----10-----10----10-----10----------12------|
A|--0-----------0------------------------------------------12---|
D|--------------------------10-----------12---------------------|

Lead Guitar: - (slide to each note)
e|-----------------------------------------------------------------|
B|--8------10---5-----8----7----8------10---5-----8----7----8------|
G|-----------------------------------------------------------------|
D|-----------------------------------------------------------------|
A|-----------------------------------------------------------------|
D|-----------------------------------------------------------------|

Then
Effect Guitar:
e|---------------------------------------------------------------|
B|---------------------------------------------------------------|
G|-----0---------------0--------0-----0-------------0--------0---|
D|--------2---------2--------4-----------2-------2--------4------|
A|--0----------0-3--------5--------0----------3--------5---------|
D|---------------------------------------------------------------|

Rhythm Guitar:
e|--------------------------------------------------------------|
B|--------------------------------------------------------------| 
G|-------12----------12-----------12-----------11-12-11---------| x2
D|----10----10----10----10-----10----10-----10----------12------|
A|--0-----------0------------------------------------------12---|
D|--------------------------10-----------12---------------------|

Lead Guitar:
e|---------------------------------------------------------------|
B|---------------------------------------------------------------|
G|------4--5s4---4--5-----4--5s4-------4--5s4----------0---------| x2
D|--2-2--------2------2-2----------2-2--------2p0--2s4-----------|
A|---------------------------------------------------------------|
D|---------------------------------------------------------------|
    . .        .      . .          . .     
  
Pre-Chorus - so....here i have 2 rhythm guitars, since this is the
only part of the song that has both of these parts play at the same
time. I wasn't sure what to do so i just wrote both.
Effect Guitar:
e|----------------------------------|
B|----------------------------------|
G|-----0---------------0--------0---| 
D|--------2---------2--------4------|
A|--0----------0-3--------5---------|
D|----------------------------------|

Rhythm Guitar:
e|--------------------------------------------------------------|
B|--------------------------------------------------------------| 
G|-------12----------12-----------12-----------11-12-11---------|
D|----10----10----10----10-----10----10-----10----------12------|
A|--0-----------0------------------------------------------12---|
D|--------------------------10-----------12---------------------|

Lead Guitar:
e|---------------------------------------------------------------|
B|---------------------------------------------------------------|
G|------4--5s4---4--5-----4--5s4-------4--5s4----------0---------|
D|--2-2--------2------2-2----------2-2--------2p0--2s4-----------|
A|---------------------------------------------------------------|
D|---------------------------------------------------------------|
    . .        .      . .          . .     
Rhythm Guitar 2:
e|-----------------------------------------------------------|
B|-----------------------------------------------------------|
G|-----------------------------------------------------------|
D|--2-2-----2-2-----2-2---5-5-5-5-5-5-5-5-5-5-5-5-5-5-5-5----|
A|--2-2-----2-2-----2-2--------------------------------------|
D|--2-2-----2-2-----2-2--------------------------------------|
    . .     . .     . .   * * * * * * * * * * * * * * * *

Chorus
Lead and Rhythm:
e|-------------------------------------------------------------------------------|
B|-------------------------------------------------------------------------------|
G|----------------------------------------10-10-10-10-10-10-10-------------------| x3
D|--7-7-7-7-7-7-7---10-10-10-10-10-10-10--10-10-10-10-10-10-10---8-8-8-8-8-8-8---|
A|--7-7-7-7-7-7-7---10-10-10-10-10-10-10---8--8--8--8--8--8--8---8-8-8-8-8-8-8---|
D|--7-7-7-7-7-7-7---10-10-10-10-10-10-10-------------------------8-8-8-8-8-8-8---|

e|-------------------------------------------------------------|
B|-------------------------------------------------------------|
G|-------------------------------------------------------------|
D|--7-7-7-7-7-7-7---10-10-10-10-10-10-10---5-5-5-5-5---8-8-8---|
A|--7-7-7-7-7-7-7---10-10-10-10-10-10-10---------------8-8-8---|
D|--7-7-7-7-7-7-7---10-10-10-10-10-10-10---------------8-8-8---|
                                           * * * * *
Verse 2
Effect Guitar:
e|---------------------------------------------------------------|
B|---------------------------------------------------------------|
G|-----0---------------0--------0-----0-------------0--------0---|
D|--------2---------2--------4-----------2-------2--------4------|
A|--0----------0-3--------5--------0----------3--------5---------|
D|---------------------------------------------------------------|

Lead Guitar:
e|---------------------------------------------------------------|
B|---------------------------------------------------------------|
G|------4--5s4---4--5-----4--5s4-------4--5s4----------0---------| x2
D|--2-2--------2------2-2----------2-2--------2p0--2s4-----------|
A|---------------------------------------------------------------|
D|---------------------------------------------------------------|
    . .        .      . .          . .      

Pre-Chorus
Effect Guitar:
e|---------------------------------------------------------------|
B|---------------------------------------------------------------|
G|-----0---------------0--------0-----0-------------0--------0---|
D|--------2---------2--------4-----------2-------2--------4------|
A|--0----------0-3--------5--------0----------3--------5---------|
D|---------------------------------------------------------------|

Lead Guitar:
e|---------------------------------------------------------------|
B|---------------------------------------------------------------|
G|------4--5s4---4--5-----4--5s4-------4--5s4----------0---------| x2
D|--2-2--------2------2-2----------2-2--------2p0--2s4-----------|
A|---------------------------------------------------------------|
D|---------------------------------------------------------------|
    . .        .      . .          . .       
Rhythm Guitar:
e|---------------------------------------------------------------|
B|---------------------------------------------------------------|
G|---------------------------------------------------------------|
D|--2-2-------2-2-----2-2-------2-2---2-2------------------------|
A|--2-2-------2-2-----2-2-------2-2---2-2------------------------|
D|--2-2-------2-2-----2-2-------2-2---2-2------------------------|
    . .       . .     . .       . .   . .
Chorus 2
Lead and Rhythm
e|-------------------------------------------------------------------------------|
B|-------------------------------------------------------------------------------|
G|----------------------------------------10-10-10-10-10-10-10-------------------| x4
D|--7-7-7-7-7-7-7---10-10-10-10-10-10-10--10-10-10-10-10-10-10---8-8-8-8-8-8-8---|
A|--7-7-7-7-7-7-7---10-10-10-10-10-10-10---8--8--8--8--8--8--8---8-8-8-8-8-8-8---|
D|--7-7-7-7-7-7-7---10-10-10-10-10-10-10-------------------------8-8-8-8-8-8-8---|

Bridge
Rhythm Guitar:
e|----------------------------------------|
B|----------------------------------------|
G|------0--------0--------4--------4------| x2
D|----------------------2----2---2----2---|
A|--0-3----3-0-3----3-0--------0----------|
D|----------------------------------------|

e|-------------------------------------------------------------------------------------|
B|-------------------------------------------------------------------------------------|
G|------4-------2-2-2-2-2-2-2---5-5-5-5-5-5-5------------------------------------------| x2
D|----2---2-----2-2-2-2-2-2-2---5-5-5-5-5-5-5---7-7-7-7-7-7-7---10-10-10-10-10-10-10---|
A|--0-------0---0-0-0-0-0-0-0---3-3-3-3-3-3-3---7-7-7-7-7-7-7---10-10-10-10-10-10-10---|
D|----------------------------------------------7-7-7-7-7-7-7---10-10-10-10-10-10-10---|

Lead Guitar:
e|--------------------------------------------|
B|--------------------------------------------|
G|--16-----17-17-14-----x-16-----17-17-14-----|
D|---x------x--x--x-----x--x------x--x--x-----|
A|--14-----15-15-12-----x-14-----15-15-12-----|
D|--------------------------------------------|

e|----------------------------------------|
B|----------------------------------------|
G|--21-19-17-16-----17-17-14----x-20b-----|
D|---x--x--x--x------x--x--x----x---------|
A|--17-17-15-14-----15-15-12----x---------|
D|----------------------------------------|

Chorus x2

Outro:
Lead and Rhythm
e|----------------------------------------------------------|
B|----------------------------------------------------------|
G|----------------------------------------------------------|
D|--5-5-5-5-5---8-8-8---5-5-5-5-5-5-5-5-5-5-5-5-5---8-8-8---|
A|--------------8-8-8-------------------------------8-8-8---|
D|--------------8-8-8-------------------------------8-8-8---|
    * * * * *           * * * * * * * * * * * * *

Legend
* - natural harmonic
x - lightly touching strings with finger while playing note
. - palm mute
s - slide
b - bend
p - pulloff
Добавлено: 26.08.2013
Другие материалы по этой песне:
  • Аккорды и текст

Страница создана 05.06.2013
http://primanota.ru/cryoshell/face-me-chords.htm
Привет, Гость.
Предлагаем пройти революционный курс по гитаре.
Подарок от PrimaNota.Ru, забирай!